0
SECTION
2
HEADER
9
$INSUNITS
70
4
9
$ACADVER
1
AC1014
9
$HANDSEED
5
FFFF
0
ENDSEC
0
SECTION
2
TABLES
0
TABLE
2
VPORT
5
8
100
AcDbSymbolTable
0
ENDTAB
0
TABLE
2
LTYPE
5
5
100
AcDbSymbolTable
0
LTYPE
5
14
100
AcDbSymbolTableRecord
100
AcDbLinetypeTableRecord
2
BYBLOCK
70
0
0
LTYPE
5
15
100
AcDbSymbolTableRecord
100
AcDbLinetypeTableRecord
2
BYLAYER
70
0
0
ENDTAB
0
TABLE
2
LAYER
5
2
100
AcDbSymbolTable
70
2
0
LAYER
5
50
100
AcDbSymbolTableRecord
100
AcDbLayerTableRecord
2
0
70
0
6
CONTINUOUS
0
ENDTAB
0
TABLE
2
STYLE
5
3
100
AcDbSymbolTable
70
1
0
STYLE
5
11
100
AcDbSymbolTableRecord
100
AcDbTextStyleTableRecord
2
STANDARD
70
0
0
ENDTAB
0
TABLE
2
VIEW
5
6
100
AcDbSymbolTable
70
0
0
ENDTAB
0
TABLE
2
UCS
5
7
100
AcDbSymbolTable
70
0
0
ENDTAB
0
TABLE
2
APPID
5
9
100
AcDbSymbolTable
70
2
0
APPID
5
12
100
AcDbSymbolTableRecord
100
AcDbRegAppTableRecord
2
ACAD
70
0
0
ENDTAB
0
TABLE
2
DIMSTYLE
5
A
100
AcDbSymbolTable
70
1
0
ENDTAB
0
TABLE
2
BLOCK_RECORD
5
1
100
AcDbSymbolTable
70
1
0
BLOCK_RECORD
5
1F
100
AcDbSymbolTableRecord
100
AcDbBlockTableRecord
2
*MODEL_SPACE
0
BLOCK_RECORD
5
1B
100
AcDbSymbolTableRecord
100
AcDbBlockTableRecord
2
*PAPER_SPACE
0
ENDTAB
0
ENDSEC
0
SECTION
2
BLOCKS
0
BLOCK
5
20
100
AcDbEntity
100
AcDbBlockBegin
2
*MODEL_SPACE
0
ENDBLK
5
21
100
AcDbEntity
100
AcDbBlockEnd
0
BLOCK
5
1C
100
AcDbEntity
100
AcDbBlockBegin
2
*PAPER_SPACE
0
ENDBLK
5
1D
100
AcDbEntity
100
AcDbBlockEnd
0
ENDSEC
0
SECTION
2
ENTITIES
0
CIRCLE
5
100
100
AcDbEntity
8
0
100
AcDbCircle
10
259.999999
20
290.89433826181016
30
0
40
1.4999999999999858
0
CIRCLE
5
101
100
AcDbEntity
8
0
100
AcDbCircle
10
270.5801335412645
20
305.45664416055922
30
0
40
1.4999999999999858
0
CIRCLE
5
102
100
AcDbEntity
8
0
100
AcDbCircle
10
259.999999
20
272.89433826181016
30
0
40
1.4999999999999858
0
CIRCLE
5
103
100
AcDbEntity
8
0
100
AcDbCircle
10
242.88098170668724
20
285.33203236306116
30
0
40
1.4999999999999858
0
CIRCLE
5
104
100
AcDbEntity
8
0
100
AcDbCircle
10
249.41986445873545
20
305.45664416055922
30
0
40
1.4999999999999858
0
CIRCLE
5
105
100
AcDbEntity
8
0
100
AcDbCircle
10
277.11901629331271
20
285.3320323630611
30
0
40
1.4999999999999858
0
CIRCLE
5
106
100
AcDbEntity
8
0
100
AcDbCircle
10
230.14789071073992
20
121.50770977826764
30
0
40
1.4999999999999858
0
CIRCLE
5
107
100
AcDbEntity
8
0
100
AcDbCircle
10
220.1478907107402
20
221.50770977826764
30
0
40
1.5000000000000213
0
CIRCLE
5
108
100
AcDbEntity
8
0
100
AcDbCircle
10
230.1478907107404
20
271.50770977826761
30
0
40
1.4999999999999858
0
CIRCLE
5
109
100
AcDbEntity
8
0
100
AcDbCircle
10
230.14789071074006
20
171.50770977826767
30
0
40
1.4999999999999858
0
CIRCLE
5
110
100
AcDbEntity
8
0
100
AcDbCircle
10
220.14789071073992
20
121.50770977826767
30
0
40
1.4999999999999858
0
CIRCLE
5
111
100
AcDbEntity
8
0
100
AcDbCircle
10
210.14789071074006
20
171.50770977826772
30
0
40
1.4999999999999858
0
CIRCLE
5
112
100
AcDbEntity
8
0
100
AcDbCircle
10
230.1478907107402
20
221.50770977826761
30
0
40
1.4999999999999858
0
CIRCLE
5
113
100
AcDbEntity
8
0
100
AcDbCircle
10
220.1478907107404
20
271.50770977826761
30
0
40
1.4999999999999858
0
CIRCLE
5
114
100
AcDbEntity
8
0
100
AcDbCircle
10
220.14789071074006
20
171.5077097782677
30
0
40
1.4999999999999858
0
CIRCLE
5
115
100
AcDbEntity
8
0
100
AcDbCircle
10
210.14789071073992
20
121.5077097782677
30
0
40
1.4999999999999858
0
LWPOLYLINE
5
116
100
AcDbEntity
8
0
100
AcDbPolyline
90
4
70
1
43
0.0
10
212.64789071074006
20
189.99999999999997
10
212.64789071074011
20
209.99999999999997
42
-0.99999999999999989
10
217.64789071074011
20
209.99999999999997
10
217.64789071074006
20
189.99999999999997
42
-0.99999999999999989
0
CIRCLE
5
117
100
AcDbEntity
8
0
100
AcDbCircle
10
223.35032957827593
20
92.999999999999545
30
0
40
1.4999999999999858
0
CIRCLE
5
118
100
AcDbEntity
8
0
100
AcDbCircle
10
223.35032957827588
20
77.999999999999559
30
0
40
1.5000000000000213
0
CIRCLE
5
119
100
AcDbEntity
8
0
100
AcDbCircle
10
223.35032957827579
20
62.999999999999552
30
0
40
1.5000000000000213
0
CIRCLE
5
120
100
AcDbEntity
8
0
100
AcDbCircle
10
223.35032957827673
20
336.9999999999996
30
0
40
1.4999999999999858
0
CIRCLE
5
121
100
AcDbEntity
8
0
100
AcDbCircle
10
223.35032957827673
20
321.9999999999996
30
0
40
1.5000000000000213
0
CIRCLE
5
122
100
AcDbEntity
8
0
100
AcDbCircle
10
223.35032957827664
20
306.99999999999955
30
0
40
1.5000000000000213
0
CIRCLE
5
123
100
AcDbEntity
8
0
100
AcDbCircle
10
268.1000000000015
20
15.000000000000009
30
0
40
1.5000000000000213
0
CIRCLE
5
124
100
AcDbEntity
8
0
100
AcDbCircle
10
-68.099999999999326
20
-15.000000000000036
30
0
40
1.5000000000000036
0
CIRCLE
5
125
100
AcDbEntity
8
0
100
AcDbCircle
10
268.10000000000167
20
-14.999999999999991
30
0
40
1.5000000000000213
0
CIRCLE
5
126
100
AcDbEntity
8
0
100
AcDbCircle
10
-68.099999999999227
20
14.999999999999968
30
0
40
1.5000000000000036
0
LWPOLYLINE
5
127
100
AcDbEntity
8
0
100
AcDbPolyline
90
6
70
1
43
0.0
10
-100
20
-40
10
300.00000000000006
20
-40
10
299.99999999999994
20
265.89433826181028
42
0.41421356237309515
10
203.34999999999997
20
362.54433826181025
10
203.35000000000002
20
39.999999999999993
10
-100.00000000000001
20
40
0
ENDSEC
0
SECTION
2
OBJECTS
0
DICTIONARY
5
C
100
AcDbDictionary
3
ACAD_GROUP
350
D
3
ACAD_MLINESTYLE
350
17
0
DICTIONARY
5
D
100
AcDbDictionary
0
DICTIONARY
5
1A
330
C
100
AcDbDictionary
0
DICTIONARY
5
17
100
AcDbDictionary
0
ENDSEC
0
EOF
