0
SECTION
2
HEADER
9
$INSUNITS
70
4
9
$ACADVER
1
AC1014
9
$HANDSEED
5
FFFF
0
ENDSEC
0
SECTION
2
TABLES
0
TABLE
2
VPORT
5
8
100
AcDbSymbolTable
0
ENDTAB
0
TABLE
2
LTYPE
5
5
100
AcDbSymbolTable
0
LTYPE
5
14
100
AcDbSymbolTableRecord
100
AcDbLinetypeTableRecord
2
BYBLOCK
70
0
0
LTYPE
5
15
100
AcDbSymbolTableRecord
100
AcDbLinetypeTableRecord
2
BYLAYER
70
0
0
ENDTAB
0
TABLE
2
LAYER
5
2
100
AcDbSymbolTable
70
2
0
LAYER
5
50
100
AcDbSymbolTableRecord
100
AcDbLayerTableRecord
2
0
70
0
6
CONTINUOUS
0
ENDTAB
0
TABLE
2
STYLE
5
3
100
AcDbSymbolTable
70
1
0
STYLE
5
11
100
AcDbSymbolTableRecord
100
AcDbTextStyleTableRecord
2
STANDARD
70
0
0
ENDTAB
0
TABLE
2
VIEW
5
6
100
AcDbSymbolTable
70
0
0
ENDTAB
0
TABLE
2
UCS
5
7
100
AcDbSymbolTable
70
0
0
ENDTAB
0
TABLE
2
APPID
5
9
100
AcDbSymbolTable
70
2
0
APPID
5
12
100
AcDbSymbolTableRecord
100
AcDbRegAppTableRecord
2
ACAD
70
0
0
ENDTAB
0
TABLE
2
DIMSTYLE
5
A
100
AcDbSymbolTable
70
1
0
ENDTAB
0
TABLE
2
BLOCK_RECORD
5
1
100
AcDbSymbolTable
70
1
0
BLOCK_RECORD
5
1F
100
AcDbSymbolTableRecord
100
AcDbBlockTableRecord
2
*MODEL_SPACE
0
BLOCK_RECORD
5
1B
100
AcDbSymbolTableRecord
100
AcDbBlockTableRecord
2
*PAPER_SPACE
0
ENDTAB
0
ENDSEC
0
SECTION
2
BLOCKS
0
BLOCK
5
20
100
AcDbEntity
100
AcDbBlockBegin
2
*MODEL_SPACE
0
ENDBLK
5
21
100
AcDbEntity
100
AcDbBlockEnd
0
BLOCK
5
1C
100
AcDbEntity
100
AcDbBlockBegin
2
*PAPER_SPACE
0
ENDBLK
5
1D
100
AcDbEntity
100
AcDbBlockEnd
0
ENDSEC
0
SECTION
2
ENTITIES
0
CIRCLE
5
100
100
AcDbEntity
8
0
100
AcDbCircle
10
-19.414874575249705
20
144.00000117223428
30
0
40
1.4999999999999947
0
CIRCLE
5
101
100
AcDbEntity
8
0
100
AcDbCircle
10
19.585125424750334
20
144.00000117223428
30
-2.2204460492503131e-15
40
1.5000000000000036
0
LWPOLYLINE
5
102
100
AcDbEntity
8
0
100
AcDbPolyline
90
8
70
1
43
0.0
10
-15.750001553705291
20
155.25000117223425
10
-15.750001553705367
20
132.75000117223428
42
0.41421356237309398
10
-13.250001553705374
20
130.25000117223428
10
13.2499984462947
20
130.25000117223419
42
0.41421356237309764
10
15.749998446294683
20
132.75000117223416
10
15.749998446294757
20
155.25000117223419
42
0.41421356237309792
10
13.249998446294802
20
157.75000117223414
10
-13.250001553705273
20
157.75000117223425
42
0.41421356237309503
0
LWPOLYLINE
5
103
100
AcDbEntity
8
0
100
AcDbPolyline
90
2
70
1
43
0.0
10
-1.4958602128454874
20
99.011387310848136
42
-13.429486628725197
10
1.4958571054349132
20
99.011387310848136
42
-1.0772315477587204
0
CIRCLE
5
104
100
AcDbEntity
8
0
100
AcDbCircle
10
-290.89433981551576
20
160.00000017223545
30
0
40
1.4999999999999858
0
CIRCLE
5
105
100
AcDbEntity
8
0
100
AcDbCircle
10
-305.45664571426482
20
170.58013471349992
30
0
40
1.4999999999999858
0
CIRCLE
5
106
100
AcDbEntity
8
0
100
AcDbCircle
10
-272.89433981551582
20
160.00000017223545
30
0
40
1.4999999999999858
0
CIRCLE
5
107
100
AcDbEntity
8
0
100
AcDbCircle
10
-285.33203391676682
20
142.88098287892265
30
0
40
1.4999999999999858
0
CIRCLE
5
108
100
AcDbEntity
8
0
100
AcDbCircle
10
-305.45664571426482
20
149.41986563097092
30
0
40
1.4999999999999858
0
CIRCLE
5
109
100
AcDbEntity
8
0
100
AcDbCircle
10
-285.3320339167667
20
177.11901746554815
30
0
40
1.4999999999999858
0
CIRCLE
5
110
100
AcDbEntity
8
0
100
AcDbCircle
10
-93.000001553705232
20
123.3503307505114
30
0
40
1.4999999999999858
0
CIRCLE
5
111
100
AcDbEntity
8
0
100
AcDbCircle
10
-78.000001553705232
20
123.35033075051136
30
-2.2204460492503131e-15
40
1.5000000000000213
0
CIRCLE
5
112
100
AcDbEntity
8
0
100
AcDbCircle
10
-63.000001553705232
20
123.3503307505113
30
0
40
1.5000000000000213
0
CIRCLE
5
113
100
AcDbEntity
8
0
100
AcDbCircle
10
-337.00000155370537
20
123.35033075051226
30
0
40
1.4999999999999858
0
CIRCLE
5
114
100
AcDbEntity
8
0
100
AcDbCircle
10
-322.00000155370537
20
123.35033075051223
30
0
40
1.5000000000000213
0
CIRCLE
5
115
100
AcDbEntity
8
0
100
AcDbCircle
10
-307.00000155370537
20
123.35033075051216
30
0
40
1.5000000000000213
0
CIRCLE
5
116
100
AcDbEntity
8
0
100
AcDbCircle
10
14.999998446294214
20
168.10000117223484
30
0
40
1.4999999999999858
0
CIRCLE
5
117
100
AcDbEntity
8
0
100
AcDbCircle
10
14.999998446294205
20
-168.0999988277639
30
2.2204460492503131e-15
40
1.5000000000000036
0
CIRCLE
5
118
100
AcDbEntity
8
0
100
AcDbCircle
10
-15.0000015537058
20
168.10000117223473
30
-2.2204460492503131e-15
40
1.4999999999999858
0
CIRCLE
5
119
100
AcDbEntity
8
0
100
AcDbCircle
10
-15.000001553705804
20
-168.09999882776378
30
0
40
1.5000000000000036
0
LWPOLYLINE
5
120
100
AcDbEntity
8
0
100
AcDbPolyline
90
6
70
1
43
0.0
10
39.999998446294221
20
200.00000117223547
10
39.999998446294221
20
-199.99999882776461
10
-40.000001553705779
20
-199.99999882776456
10
-40.000001553705786
20
103.35000117223542
10
-362.54433981551608
20
103.35000117223532
42
-0.41421356237309515
10
-265.8943398155161
20
200.00000117223536
0
CIRCLE
5
121
100
AcDbEntity
8
0
100
AcDbCircle
10
-19.414874575249705
20
144.00000117223428
30
0
40
1.4999999999999947
0
CIRCLE
5
122
100
AcDbEntity
8
0
100
AcDbCircle
10
19.585125424750334
20
144.00000117223428
30
0
40
1.5000000000000036
0
LWPOLYLINE
5
123
100
AcDbEntity
8
0
100
AcDbPolyline
90
8
70
1
43
0.0
10
-15.750001553705367
20
132.75000117223428
10
-15.750001553705291
20
155.25000117223425
42
-0.41421356237309503
10
-13.250001553705273
20
157.75000117223425
10
13.249998446294802
20
157.75000117223416
42
-0.41421356237309764
10
15.749998446294757
20
155.25000117223419
10
15.749998446294684
20
132.75000117223416
42
-0.41421356237310153
10
13.2499984462947
20
130.25000117223419
10
-13.250001553705374
20
130.25000117223428
42
-0.41421356237309398
0
LWPOLYLINE
5
124
100
AcDbEntity
8
0
100
AcDbPolyline
90
2
70
1
43
0.0
10
-1.4958602128454801
20
99.011387310848136
42
-13.429486628725238
10
1.4958571054349132
20
99.011387310848136
42
-1.0772315477587142
0
CIRCLE
5
125
100
AcDbEntity
8
0
100
AcDbCircle
10
-290.89433981551576
20
160.00000017223539
30
0
40
1.4999999999999858
0
CIRCLE
5
126
100
AcDbEntity
8
0
100
AcDbCircle
10
-305.45664571426482
20
170.58013471349989
30
0
40
1.4999999999999858
0
CIRCLE
5
127
100
AcDbEntity
8
0
100
AcDbCircle
10
-272.89433981551576
20
160.00000017223539
30
0
40
1.4999999999999858
0
CIRCLE
5
128
100
AcDbEntity
8
0
100
AcDbCircle
10
-285.33203391676676
20
142.88098287892262
30
0
40
1.4999999999999858
0
CIRCLE
5
129
100
AcDbEntity
8
0
100
AcDbCircle
10
-305.45664571426482
20
149.41986563097086
30
0
40
1.4999999999999858
0
CIRCLE
5
130
100
AcDbEntity
8
0
100
AcDbCircle
10
-285.3320339167667
20
177.11901746554813
30
0
40
1.4999999999999858
0
CIRCLE
5
131
100
AcDbEntity
8
0
100
AcDbCircle
10
-93.000001553705204
20
123.35033075051136
30
0
40
1.4999999999999858
0
CIRCLE
5
132
100
AcDbEntity
8
0
100
AcDbCircle
10
-78.000001553705218
20
123.35033075051132
30
0
40
1.5000000000000213
0
CIRCLE
5
133
100
AcDbEntity
8
0
100
AcDbCircle
10
-63.000001553705218
20
123.35033075051128
30
2.2204460492503131e-15
40
1.5000000000000213
0
CIRCLE
5
134
100
AcDbEntity
8
0
100
AcDbCircle
10
-337.00000155370537
20
123.35033075051221
30
0
40
1.4999999999999858
0
CIRCLE
5
135
100
AcDbEntity
8
0
100
AcDbCircle
10
-322.00000155370537
20
123.3503307505122
30
0
40
1.5000000000000213
0
CIRCLE
5
136
100
AcDbEntity
8
0
100
AcDbCircle
10
-307.00000155370537
20
123.35033075051213
30
0
40
1.5000000000000213
0
CIRCLE
5
137
100
AcDbEntity
8
0
100
AcDbCircle
10
14.999998446294217
20
168.10000117223484
30
0
40
1.4999999999999858
0
CIRCLE
5
138
100
AcDbEntity
8
0
100
AcDbCircle
10
14.99999844629421
20
-168.0999988277639
30
0
40
1.5000000000000036
0
CIRCLE
5
139
100
AcDbEntity
8
0
100
AcDbCircle
10
-15.000001553705795
20
168.10000117223473
30
0
40
1.4999999999999858
0
CIRCLE
5
140
100
AcDbEntity
8
0
100
AcDbCircle
10
-15.0000015537058
20
-168.09999882776378
30
0
40
1.5000000000000036
0
LWPOLYLINE
5
141
100
AcDbEntity
8
0
100
AcDbPolyline
90
6
70
1
43
0.0
10
39.999998446294228
20
-199.99999882776461
10
39.999998446294214
20
200.00000117223547
10
-265.8943398155161
20
200.00000117223536
42
0.41421356237309509
10
-362.54433981551608
20
103.35000117223537
10
-40.000001553705772
20
103.35000117223544
10
-40.000001553705772
20
-199.99999882776461
0
CIRCLE
5
142
100
AcDbEntity
8
0
100
AcDbCircle
10
-290.89433981551565
20
160.00000017223414
30
5.5511151231257827e-14
40
1.4999999999999869
0
CIRCLE
5
143
100
AcDbEntity
8
0
100
AcDbCircle
10
-305.45664571426471
20
170.58013471349864
30
5.1070259132757201e-14
40
1.4999999999999869
0
CIRCLE
5
144
100
AcDbEntity
8
0
100
AcDbCircle
10
-272.89433981551559
20
160.00000017223414
30
-8.8817841970012523e-15
40
1.4999999999999869
0
CIRCLE
5
145
100
AcDbEntity
8
0
100
AcDbCircle
10
-285.33203391676665
20
142.8809828789214
30
5.773159728050814e-14
40
1.4999999999999869
0
CIRCLE
5
146
100
AcDbEntity
8
0
100
AcDbCircle
10
-305.45664571426471
20
149.41986563096964
30
5.1070259132757201e-14
40
1.4999999999999869
0
CIRCLE
5
147
100
AcDbEntity
8
0
100
AcDbCircle
10
-285.33203391676659
20
177.11901746554688
30
5.773159728050814e-14
40
1.4999999999999869
0
CIRCLE
5
148
100
AcDbEntity
8
0
100
AcDbCircle
10
-93.000001553704891
20
123.3503307505101
30
6.2172489379008766e-14
40
1.4999999999999867
0
CIRCLE
5
149
100
AcDbEntity
8
0
100
AcDbCircle
10
-78.000001553704905
20
123.35033075051003
30
-4.4408920985006262e-15
40
1.5000000000000222
0
CIRCLE
5
150
100
AcDbEntity
8
0
100
AcDbCircle
10
-63.000001553704898
20
123.35033075050998
30
2.2204460492503131e-15
40
1.5000000000000222
0
CIRCLE
5
151
100
AcDbEntity
8
0
100
AcDbCircle
10
-337.00000155370509
20
123.35033075051092
30
3.7747582837255322e-14
40
1.4999999999999867
0
CIRCLE
5
152
100
AcDbEntity
8
0
100
AcDbCircle
10
-322.00000155370509
20
123.35033075051086
30
4.4408920985006262e-14
40
1.5000000000000222
0
CIRCLE
5
153
100
AcDbEntity
8
0
100
AcDbCircle
10
-307.00000155370509
20
123.35033075051079
30
4.8849813083506888e-14
40
1.5000000000000222
0
CIRCLE
5
154
100
AcDbEntity
8
0
100
AcDbCircle
10
-15.000001553705317
20
168.10000117223566
30
1.9984014443252818e-14
40
1.5000000000000222
0
CIRCLE
5
155
100
AcDbEntity
8
0
100
AcDbCircle
10
14.999998446294748
20
-168.09999882776492
30
3.3306690738754696e-14
40
1.5000000000000044
0
CIRCLE
5
156
100
AcDbEntity
8
0
100
AcDbCircle
10
14.999998446294702
20
168.10000117223578
30
3.3306690738754696e-14
40
1.5000000000000222
0
CIRCLE
5
157
100
AcDbEntity
8
0
100
AcDbCircle
10
-15.000001553705275
20
-168.09999882776481
30
1.9984014443252818e-14
40
1.5000000000000044
0
LWPOLYLINE
5
158
100
AcDbEntity
8
0
100
AcDbPolyline
90
6
70
1
43
0.0
10
-265.89433981551576
20
200.00000117223408
10
39.999998446294725
20
200.00000117223414
10
39.999998446294725
20
-199.99999882776558
10
-40.000001553705324
20
-199.99999882776549
10
-40.000001553705289
20
103.35000117223422
10
-362.54433981551574
20
103.35000117223416
42
-0.41421356237309509
0
ENDSEC
0
SECTION
2
OBJECTS
0
DICTIONARY
5
C
100
AcDbDictionary
3
ACAD_GROUP
350
D
3
ACAD_MLINESTYLE
350
17
0
DICTIONARY
5
D
100
AcDbDictionary
0
DICTIONARY
5
1A
330
C
100
AcDbDictionary
0
DICTIONARY
5
17
100
AcDbDictionary
0
ENDSEC
0
EOF
