0
SECTION
2
HEADER
9
$INSUNITS
70
4
9
$ACADVER
1
AC1014
9
$HANDSEED
5
FFFF
0
ENDSEC
0
SECTION
2
TABLES
0
TABLE
2
VPORT
5
8
100
AcDbSymbolTable
0
ENDTAB
0
TABLE
2
LTYPE
5
5
100
AcDbSymbolTable
0
LTYPE
5
14
100
AcDbSymbolTableRecord
100
AcDbLinetypeTableRecord
2
BYBLOCK
70
0
0
LTYPE
5
15
100
AcDbSymbolTableRecord
100
AcDbLinetypeTableRecord
2
BYLAYER
70
0
0
ENDTAB
0
TABLE
2
LAYER
5
2
100
AcDbSymbolTable
70
2
0
LAYER
5
50
100
AcDbSymbolTableRecord
100
AcDbLayerTableRecord
2
0
70
0
6
CONTINUOUS
0
ENDTAB
0
TABLE
2
STYLE
5
3
100
AcDbSymbolTable
70
1
0
STYLE
5
11
100
AcDbSymbolTableRecord
100
AcDbTextStyleTableRecord
2
STANDARD
70
0
0
ENDTAB
0
TABLE
2
VIEW
5
6
100
AcDbSymbolTable
70
0
0
ENDTAB
0
TABLE
2
UCS
5
7
100
AcDbSymbolTable
70
0
0
ENDTAB
0
TABLE
2
APPID
5
9
100
AcDbSymbolTable
70
2
0
APPID
5
12
100
AcDbSymbolTableRecord
100
AcDbRegAppTableRecord
2
ACAD
70
0
0
ENDTAB
0
TABLE
2
DIMSTYLE
5
A
100
AcDbSymbolTable
70
1
0
ENDTAB
0
TABLE
2
BLOCK_RECORD
5
1
100
AcDbSymbolTable
70
1
0
BLOCK_RECORD
5
1F
100
AcDbSymbolTableRecord
100
AcDbBlockTableRecord
2
*MODEL_SPACE
0
BLOCK_RECORD
5
1B
100
AcDbSymbolTableRecord
100
AcDbBlockTableRecord
2
*PAPER_SPACE
0
ENDTAB
0
ENDSEC
0
SECTION
2
BLOCKS
0
BLOCK
5
20
100
AcDbEntity
100
AcDbBlockBegin
2
*MODEL_SPACE
0
ENDBLK
5
21
100
AcDbEntity
100
AcDbBlockEnd
0
BLOCK
5
1C
100
AcDbEntity
100
AcDbBlockBegin
2
*PAPER_SPACE
0
ENDBLK
5
1D
100
AcDbEntity
100
AcDbBlockEnd
0
ENDSEC
0
SECTION
2
ENTITIES
0
SPLINE
5
100
100
AcDbEntity
8
0
100
AcDbSpline
70
1064
71
3
72
8
73
4
74
0
42
0.000000001
43
0.0000000001
44
0.0000000001
40
0
40
0
40
0
40
0
40
1
40
1
40
1
40
1
10
9.2190461961550447
20
-45.964585962460767
30
0
10
12.32211239843558
20
-45.965419483738685
30
0
10
14.476409825989293
20
-48.119146632752425
30
0
10
14.476147114800046
20
-51.286708685700418
30
0
0
SPLINE
5
101
100
AcDbEntity
8
0
100
AcDbSpline
70
1064
71
3
72
8
73
4
74
0
42
0.000000001
43
0.0000000001
44
0.0000000001
40
0
40
0
40
0
40
0
40
1
40
1
40
1
40
1
10
14.476147114800046
20
-51.286708685700418
30
0
10
14.475953140779698
20
-54.391533042132835
30
0
10
12.321586411175131
20
-56.544072386994635
30
0
10
9.216761602236538
20
-56.543878636941159
30
0
0
SPLINE
5
102
100
AcDbEntity
8
0
100
AcDbSpline
70
1064
71
3
72
8
73
4
74
0
42
0.000000001
43
0.0000000001
44
0.0000000001
40
0
40
0
40
0
40
0
40
1
40
1
40
1
40
1
10
9.216761602236538
20
-56.543878636941159
30
0
10
6.1131360775560157
20
-56.544244566587565
30
0
10
3.8961014964057066
20
-54.390447889551709
30
0
10
3.8962950416662006
20
-51.285623333119773
30
0
0
SPLINE
5
103
100
AcDbEntity
8
0
100
AcDbSpline
70
1064
71
3
72
8
73
4
74
0
42
0.000000001
43
0.0000000001
44
0.0000000001
40
0
40
0
40
0
40
0
40
1
40
1
40
1
40
1
10
3.8962950416662006
20
-51.285623333119773
30
0
10
3.8965578957753992
20
-48.118061346838289
30
0
10
6.1142217159765728
20
-45.964392626786733
30
0
10
9.2190461961550447
20
-45.964585962460767
30
0
0
LINE
5
104
100
AcDbEntity
8
0
100
AcDbLine
10
3.912191254068083
20
-46.488363695651287
30
0
11
3.8995500293957024
21
-21.933806851760956
31
-5.202753043067135e-30
0
LINE
5
105
100
AcDbEntity
8
0
100
AcDbLine
10
3.8995500293957024
20
-21.933806851760956
30
-5.202753043067135e-30
11
14.479400658291265
21
-21.92800007149738
31
3.0254051687548746e-30
0
LINE
5
106
100
AcDbEntity
8
0
100
AcDbLine
10
14.479400658291265
20
-21.92800007149738
30
3.0254051687548746e-30
11
14.492681803848493
21
-46.484314815152317
31
6.277308164182053e-30
0
SPLINE
5
107
100
AcDbEntity
8
0
100
AcDbSpline
70
1064
71
3
72
8
73
4
74
0
42
0.000000001
43
0.0000000001
44
0.0000000001
40
-1
40
-1
40
-1
40
-1
40
-0
40
-0
40
-0
40
-0
10
14.492681803848495
20
-46.484314815152317
30
0
10
13.338321107979134
20
-44.839142052531272
30
0
10
11.462442925189295
20
-43.97874154490772
30
0
10
9.2010190169093971
20
-43.980757151530483
30
0
0
SPLINE
5
108
100
AcDbEntity
8
0
100
AcDbSpline
70
1064
71
3
72
8
73
4
74
0
42
0.000000001
43
0.0000000001
44
0.0000000001
40
-1
40
-1
40
-1
40
-1
40
-0
40
-0
40
-0
40
-0
10
9.2010190169093971
20
-43.980757151530483
30
0
10
6.9401532599224165
20
-43.98157415338838
30
0
10
5.0648912443016787
20
-44.843456419044557
30
0
10
3.912191254068083
20
-46.488363695651287
30
0
0
LINE
5
109
100
AcDbEntity
8
0
100
AcDbLine
10
-59.278228828150866
20
-21.966824850067923
30
0
11
-34.279796117980247
21
-21.953658561452272
31
-7.2618217468836132e-30
0
SPLINE
5
110
100
AcDbEntity
8
0
100
AcDbSpline
70
1064
71
3
72
8
73
4
74
0
42
0.000000001
43
0.0000000001
44
0.0000000001
40
-1
40
-1
40
-1
40
-1
40
-0
40
-0
40
-0
40
-0
10
-34.279796117980247
20
-21.953658561452272
30
0
10
-31.104447447687654
20
-25.01567816423071
30
0
10
-29.28062383821683
20
-29.447602362661307
30
0
10
-29.277025919954788
20
-34.804979790306767
30
0
0
SPLINE
5
111
100
AcDbEntity
8
0
100
AcDbSpline
70
1064
71
3
72
8
73
4
74
0
42
0.000000001
43
0.0000000001
44
0.0000000001
40
-1
40
-1
40
-1
40
-1
40
-0
40
-0
40
-0
40
-0
10
-29.277025919954788
20
-34.804979790306767
30
0
10
-29.272390010256103
20
-45.321534825299366
30
0
10
-36.277572119640887
20
-52.229445582673748
30
0
10
-46.789329743160167
20
-52.236315143085115
30
0
0
SPLINE
5
112
100
AcDbEntity
8
0
100
AcDbSpline
70
1064
71
3
72
8
73
4
74
0
42
0.000000001
43
0.0000000001
44
0.0000000001
40
-1
40
-1
40
-1
40
-1
40
-0
40
-0
40
-0
40
-0
10
-46.789329743160167
20
-52.236315143085115
30
0
10
-57.243146458129452
20
-52.240979891424274
30
0
10
-64.255266913174211
20
-45.340498571860088
30
0
10
-64.261101760504701
20
-34.823386100391346
30
0
0
SPLINE
5
113
100
AcDbEntity
8
0
100
AcDbSpline
70
1064
71
3
72
8
73
4
74
0
42
0.000000001
43
0.0000000001
44
0.0000000001
40
-1
40
-1
40
-1
40
-1
40
-0
40
-0
40
-0
40
-0
10
-64.261101760504701
20
-34.823386100391346
30
0
10
-64.261004644123531
20
-33.870495816414191
30
0
10
-64.202702354632535
20
-32.946169177810241
30
0
10
-64.090268564601104
20
-32.052887022224766
30
0
0
LINE
5
114
100
AcDbEntity
8
0
100
AcDbLine
10
-64.090268564601089
20
-32.052887022224766
30
0
11
-53.658990724190254
21
-32.046482977404906
31
2.7895699758167243e-30
0
LINE
5
115
100
AcDbEntity
8
0
100
AcDbLine
10
-53.658990724190254
20
-32.046482977404906
30
2.7895699758167243e-30
11
-53.659549141776715
21
-32.047682154023185
31
0
0
LINE
5
116
100
AcDbEntity
8
0
100
AcDbLine
10
-53.659549141776715
20
-32.047682154023185
30
0
11
-39.883125660379029
21
-32.040450599323194
31
1.7966681737935817e-30
0
SPLINE
5
117
100
AcDbEntity
8
0
100
AcDbSpline
70
1064
71
3
72
8
73
4
74
0
42
0.000000001
43
0.0000000001
44
0.0000000001
40
-1
40
-1
40
-1
40
-1
40
-0
40
-0
40
-0
40
-0
10
-39.883125660379022
20
-32.040450599323194
30
0
10
-40.69257567045365
20
-28.222439986128673
30
0
10
-43.283250555613535
20
-25.816487051243946
30
0
10
-46.804139464152456
20
-25.818657718607348
30
0
0
SPLINE
5
118
100
AcDbEntity
8
0
100
AcDbSpline
70
1064
71
3
72
8
73
4
74
0
42
0.000000001
43
0.0000000001
44
0.0000000001
40
-1
40
-1
40
-1
40
-1
40
-0
40
-0
40
-0
40
-0
10
-46.804139464152456
20
-25.818657718607348
30
0
10
-49.092817317018749
20
-25.81965714885974
30
0
10
-50.991180478352767
20
-26.872167347765572
30
0
10
-52.252357007857178
20
-28.681081020398864
30
0
0
LINE
5
119
100
AcDbEntity
8
0
100
AcDbLine
10
-52.252357007857178
20
-28.681081020398857
30
0
11
-63.361359336697241
21
-28.685642927717705
31
-5.3917209619310152e-30
0
SPLINE
5
120
100
AcDbEntity
8
0
100
AcDbSpline
70
1064
71
3
72
8
73
4
74
0
42
0.000000001
43
0.0000000001
44
0.0000000001
40
-1
40
-1
40
-1
40
-1
40
-0
40
-0
40
-0
40
-0
10
-63.361359336697241
20
-28.685642927717705
30
0
10
-62.528446522641666
20
-26.035200176611191
30
0
10
-61.13330083431088
20
-23.766235563238585
30
0
10
-59.278228828150866
20
-21.966824850067923
30
0
0
SPLINE
5
121
100
AcDbEntity
8
0
100
AcDbSpline
70
1064
71
3
72
8
73
4
74
0
42
0.000000001
43
0.0000000001
44
0.0000000001
40
-1
40
-1
40
-1
40
-1
40
-0
40
-0
40
-0
40
-0
10
-1.4407220686073225
20
-29.222849803240472
30
0
10
-5.306145720579039
20
-26.502017145723286
30
0
10
-9.7417718386342926
20
-24.983734931475841
30
0
10
-13.542622287717084
20
-24.985416005626575
30
0
0
SPLINE
5
122
100
AcDbEntity
8
0
100
AcDbSpline
70
1064
71
3
72
8
73
4
74
0
42
0.000000001
43
0.0000000001
44
0.0000000001
40
-1
40
-1
40
-1
40
-1
40
-0
40
-0
40
-0
40
-0
10
-13.542622287717084
20
-24.985416005626575
30
0
10
-15.696954374877741
20
-24.986225275218345
30
0
10
-17.280270864049506
20
-25.747647182857012
30
0
10
-17.279370415661919
20
-27.331427829895929
30
0
0
SPLINE
5
123
100
AcDbEntity
8
0
100
AcDbSpline
70
1064
71
3
72
8
73
4
74
0
42
0.000000001
43
0.0000000001
44
0.0000000001
40
-1
40
-1
40
-1
40
-1
40
-0
40
-0
40
-0
40
-0
10
-17.279370415661919
20
-27.331427829895929
30
0
10
-17.27670074723968
20
-32.33667713891198
30
0
10
0.39690234404679281
20
-29.72979443378156
30
0
10
0.33911727305180606
20
-41.702868595884944
30
0
0
SPLINE
5
124
100
AcDbEntity
8
0
100
AcDbSpline
70
1064
71
3
72
8
73
4
74
0
42
0.000000001
43
0.0000000001
44
0.0000000001
40
-1
40
-1
40
-1
40
-1
40
-0
40
-0
40
-0
40
-0
10
0.33911727305180606
20
-41.702868595884944
30
0
10
0.34321127788267625
20
-48.735775262346756
30
0
10
-5.6090908117085796
20
-52.539675172850437
30
0
10
-13.527435811546365
20
-52.542976761596307
30
0
0
SPLINE
5
125
100
AcDbEntity
8
0
100
AcDbSpline
70
1064
71
3
72
8
73
4
74
0
42
0.000000001
43
0.0000000001
44
0.0000000001
40
-1
40
-1
40
-1
40
-1
40
-0
40
-0
40
-0
40
-0
10
-13.527435811546365
20
-52.542976761596307
30
0
10
-18.469947319472649
20
-52.54567563588401
30
0
10
-23.411605010236997
20
-51.155122271470162
30
0
10
-27.59434288386116
20
-48.68637964553443
30
0
0
LINE
5
126
100
AcDbEntity
8
0
100
AcDbLine
10
-27.59434288386116
20
-48.686379645534423
30
0
11
-23.86029576821214
21
-41.589025165331563
31
3.3236585551985817e-31
0
SPLINE
5
127
100
AcDbEntity
8
0
100
AcDbSpline
70
1064
71
3
72
8
73
4
74
0
42
0.000000001
43
0.0000000001
44
0.0000000001
40
-1
40
-1
40
-1
40
-1
40
-0
40
-0
40
-0
40
-0
10
-23.86029576821214
20
-41.589025165331563
30
0
10
-19.74082096869515
20
-43.805031164623088
30
0
10
-15.939623308074598
20
-45.005991761620798
30
0
10
-13.088706096035796
20
-45.004131010290216
30
0
0
SPLINE
5
128
100
AcDbEntity
8
0
100
AcDbSpline
70
1064
71
3
72
8
73
4
74
0
42
0.000000001
43
0.0000000001
44
0.0000000001
40
-1
40
-1
40
-1
40
-1
40
-0
40
-0
40
-0
40
-0
10
-13.088706096035796
20
-45.004131010290216
30
0
10
-11.12554322916419
20
-45.003317778524732
30
0
10
-9.7321974493970735
20
-44.242451755932358
30
0
10
-9.7330972593578728
20
-42.658671232223639
30
0
0
SPLINE
5
129
100
AcDbEntity
8
0
100
AcDbSpline
70
1064
71
3
72
8
73
4
74
0
42
0.000000001
43
0.0000000001
44
0.0000000001
40
-1
40
-1
40
-1
40
-1
40
-0
40
-0
40
-0
40
-0
10
-9.7330972593578728
20
-42.658671232223639
30
0
10
-9.7346283723825415
20
-37.970624761679645
30
0
10
-27.724816467634493
20
-40.260803516562078
30
0
10
-27.668258879311146
20
-28.349908113188718
30
0
0
SPLINE
5
130
100
AcDbEntity
8
0
100
AcDbSpline
70
1064
71
3
72
8
73
4
74
0
42
0.000000001
43
0.0000000001
44
0.0000000001
40
-1
40
-1
40
-1
40
-1
40
-0
40
-0
40
-0
40
-0
10
-27.668258879311146
20
-28.349908113188718
30
0
10
-27.669328124864258
20
-25.782467782883209
30
0
10
-26.848947088283634
20
-23.638410920358321
30
0
10
-25.408650398309781
20
-21.949390982318491
30
0
0
LINE
5
131
100
AcDbEntity
8
0
100
AcDbLine
10
-25.408650398309781
20
-21.949390982318494
30
0
11
1.6044156537065879
21
-21.934572089644988
31
-1.4225965418595218e-30
0
SPLINE
5
132
100
AcDbEntity
8
0
100
AcDbSpline
70
1064
71
3
72
8
73
4
74
0
42
0.000000001
43
0.0000000001
44
0.0000000001
40
-1
40
-1
40
-1
40
-1
40
-0
40
-0
40
-0
40
-0
10
1.6044156537065861
20
-21.934572089644988
30
0
10
1.7493970867305757
20
-22.040027567711064
30
0
10
1.8978948518708743
20
-22.144202060300628
30
0
10
2.0400024273706157
20
-22.252696916928649
30
0
0
LINE
5
133
100
AcDbEntity
8
0
100
AcDbLine
10
2.0400024273706157
20
-22.252696916928642
30
0
11
-1.4407220686073225
21
-29.222849803240472
31
0
0
LINE
5
134
100
AcDbEntity
8
0
100
AcDbLine
10
17.634754539307121
20
-35.427536103951155
30
0
11
17.627509620315504
21
-21.926918634729518
31
-2.0545953242485805e-30
0
LINE
5
135
100
AcDbEntity
8
0
100
AcDbLine
10
17.627509620315504
20
-21.926918634729518
30
-2.0545953242485805e-30
11
48.71547205225216
21
-21.911072154944549
31
-1.3012746325219689e-29
0
SPLINE
5
136
100
AcDbEntity
8
0
100
AcDbSpline
70
1064
71
3
72
8
73
4
74
0
42
0.000000001
43
0.0000000001
44
0.0000000001
40
-1
40
-1
40
-1
40
-1
40
-0
40
-0
40
-0
40
-0
10
48.71547205225216
20
-21.911072154944549
30
0
10
49.760341692515482
20
-23.556334443965127
30
0
10
50.32996518592828
20
-25.542126922718722
30
0
10
50.331552177967467
20
-27.766868117090375
30
0
0
SPLINE
5
137
100
AcDbEntity
8
0
100
AcDbSpline
70
1064
71
3
72
8
73
4
74
0
42
0.000000001
43
0.0000000001
44
0.0000000001
40
-1
40
-1
40
-1
40
-1
40
-0
40
-0
40
-0
40
-0
10
50.331552177967467
20
-27.766868117090375
30
0
10
50.334538409237496
20
-34.228665378204148
30
0
10
45.712109579152731
20
-38.031632458579523
30
0
10
37.222626388246269
20
-38.098780774428093
30
0
0
LINE
5
138
100
AcDbEntity
8
0
100
AcDbLine
10
37.222626388246269
20
-38.098780774428093
30
0
11
28.978207471873382
21
-38.103469586986201
31
-7.6279943861251954e-30
0
SPLINE
5
139
100
AcDbEntity
8
0
100
AcDbSpline
70
1064
71
3
72
8
73
4
74
0
42
0.000000001
43
0.0000000001
44
0.0000000001
40
-1
40
-1
40
-1
40
-1
40
-0
40
-0
40
-0
40
-0
10
28.978207471873375
20
-38.103469586986201
30
0
10
29.878758253069662
20
-41.813592044584894
30
0
10
32.613107609778005
20
-44.193054278816994
30
0
10
36.265385270376086
20
-44.190775940109965
30
0
0
SPLINE
5
140
100
AcDbEntity
8
0
100
AcDbSpline
70
1064
71
3
72
8
73
4
74
0
42
0.000000001
43
0.0000000001
44
0.0000000001
40
-1
40
-1
40
-1
40
-1
40
-0
40
-0
40
-0
40
-0
10
36.265385270376086
20
-44.190775940109965
30
0
10
36.275455597610417
20
-44.191087027800499
30
0
10
36.286084076137655
20
-44.190199510726167
30
0
10
36.296712820958433
20
-44.189311421798429
30
0
0
LINE
5
141
100
AcDbEntity
8
0
100
AcDbLine
10
36.296712820958433
20
-44.189311421798429
30
0
11
36.296959579000955
21
-44.198182306120927
31
0
0
LINE
5
142
100
AcDbEntity
8
0
100
AcDbLine
10
36.296959579000955
20
-44.198182306120927
30
0
11
38.895169081568653
21
-44.196849128874966
31
0
0
LINE
5
143
100
AcDbEntity
8
0
100
AcDbLine
10
38.895169081568653
20
-44.196849128874966
30
0
11
38.899329720237823
21
-52.868602625804741
31
2.7613676503499753e-30
0
LINE
5
144
100
AcDbEntity
8
0
100
AcDbLine
10
38.899329720237823
20
-52.868602625804741
30
2.7613676503499753e-30
11
36.301120789523537
21
-52.869936069344249
31
0
0
SPLINE
5
145
100
AcDbEntity
8
0
100
AcDbSpline
70
1064
71
3
72
8
73
4
74
0
42
0.000000001
43
0.0000000001
44
0.0000000001
40
-1
40
-1
40
-1
40
-1
40
-0
40
-0
40
-0
40
-0
10
36.301120789523537
20
-52.869936069344249
30
0
10
36.289851818258043
20
-52.869065420360421
30
0
10
36.280421983761983
20
-52.870512498728047
30
0
10
36.269793505234752
20
-52.871400015802372
30
0
0
SPLINE
5
146
100
AcDbEntity
8
0
100
AcDbSpline
70
1064
71
3
72
8
73
4
74
0
42
0.000000001
43
0.0000000001
44
0.0000000001
40
-1
40
-1
40
-1
40
-1
40
-0
40
-0
40
-0
40
-0
10
36.269793505234752
20
-52.871400015802372
30
0
10
25.119391622284063
20
-52.877115964861936
30
0
10
17.639655790699049
20
-45.974860271939647
30
0
10
17.635019881000375
20
-35.458305236947041
30
0
0
SPLINE
5
147
100
AcDbEntity
8
0
100
AcDbSpline
70
1064
71
3
72
8
73
4
74
0
42
0.000000001
43
0.0000000001
44
0.0000000001
40
-1
40
-1
40
-1
40
-1
40
-0
40
-0
40
-0
40
-0
10
17.635019881000375
20
-35.458305236947041
30
0
10
17.635330968690905
20
-35.448234909712696
30
0
10
17.635642056381457
20
-35.438164582478386
30
0
10
17.635312956893582
20
-35.426336927332862
30
0
0
LINE
5
148
100
AcDbEntity
8
0
100
AcDbLine
10
17.635312956893582
20
-35.426336927332855
30
0
11
17.634754539307121
21
-35.427536103951155
31
0
0
LINE
5
149
100
AcDbEntity
8
0
100
AcDbLine
10
54.089276097037377
20
-21.911048833632599
30
0
11
65.113005433332873
21
-21.911899166453146
31
7.1976156995944696e-31
0
LINE
5
150
100
AcDbEntity
8
0
100
AcDbLine
10
65.113005433332873
20
-21.911899166453146
30
7.1976156995944696e-31
11
65.111455516560255
21
-35.412518371178862
31
2.4412017804995613e-30
0
LINE
5
151
100
AcDbEntity
8
0
100
AcDbLine
10
65.111455516560255
20
-35.412518371178862
30
2.4412017804995613e-30
11
65.110256703982259
21
-35.411959172524938
31
0
0
SPLINE
5
152
100
AcDbEntity
8
0
100
AcDbSpline
70
1064
71
3
72
8
73
4
74
0
42
0.000000001
43
0.0000000001
44
0.0000000001
40
-1
40
-1
40
-1
40
-1
40
-0
40
-0
40
-0
40
-0
10
65.110256703982259
20
-35.411959172524938
30
0
10
65.111137868730538
20
-35.422588493532515
30
0
10
65.112019033478816
20
-35.433217814540079
30
0
10
65.111700280637223
20
-35.443288813587337
30
0
0
SPLINE
5
153
100
AcDbEntity
8
0
100
AcDbSpline
70
1064
71
3
72
8
73
4
74
0
42
0.000000001
43
0.0000000001
44
0.0000000001
40
-1
40
-1
40
-1
40
-1
40
-0
40
-0
40
-0
40
-0
10
65.111700280637223
20
-35.443288813587337
30
0
10
65.109485557660307
20
-45.959843972377783
30
0
10
57.633470155321156
20
-52.864626491792592
30
0
10
46.484265540153643
20
-52.863637693781499
30
0
0
SPLINE
5
154
100
AcDbEntity
8
0
100
AcDbSpline
70
1064
71
3
72
8
73
4
74
0
42
0.000000001
43
0.0000000001
44
0.0000000001
40
-1
40
-1
40
-1
40
-1
40
-0
40
-0
40
-0
40
-0
10
46.484265540153643
20
-52.863637693781499
30
0
10
46.472996605221994
20
-52.862760847297849
30
0
10
46.462926482868347
20
-52.862443199468139
30
0
10
46.452297142686888
20
-52.863323659203587
30
0
0
LINE
5
155
100
AcDbEntity
8
0
100
AcDbLine
10
46.452297142686888
20
-52.863323659203587
30
0
11
43.880701275259597
21
-52.862239607639125
31
0
0
LINE
5
156
100
AcDbEntity
8
0
100
AcDbLine
10
43.880701275259597
20
-52.862239607639125
30
0
11
43.882189759417315
21
-44.190485317074526
31
-6.3286923136406775e-31
0
LINE
5
157
100
AcDbEntity
8
0
100
AcDbLine
10
43.882189759417315
20
-44.190485317074526
30
-6.3286923136406775e-31
11
46.453785626844606
21
-44.19156936863898
31
0
0
LINE
5
158
100
AcDbEntity
8
0
100
AcDbLine
10
46.453785626844606
20
-44.19156936863898
30
0
11
46.45354491436624
21
-44.182697753849553
31
0
0
SPLINE
5
159
100
AcDbEntity
8
0
100
AcDbSpline
70
1064
71
3
72
8
73
4
74
0
42
0.000000001
43
0.0000000001
44
0.0000000001
40
-1
40
-1
40
-1
40
-1
40
-0
40
-0
40
-0
40
-0
10
46.45354491436624
20
-44.182697753849553
30
0
10
46.464175035371881
20
-44.181814874061807
30
0
10
46.473685159073526
20
-44.183333049508981
30
0
10
46.484954094005168
20
-44.184209895992637
30
0
0
SPLINE
5
160
100
AcDbEntity
8
0
100
AcDbSpline
70
1064
71
3
72
8
73
4
74
0
42
0.000000001
43
0.0000000001
44
0.0000000001
40
-1
40
-1
40
-1
40
-1
40
-0
40
-0
40
-0
40
-0
10
46.484954094005168
20
-44.184209895992637
30
0
10
50.954577602474188
20
-44.184572463137471
30
0
10
54.046409644835869
20
-40.61688630538179
30
0
10
54.084129609197745
20
-35.409990728236423
30
0
0
LINE
5
161
100
AcDbEntity
8
0
100
AcDbLine
10
54.084129609197745
20
-35.40999072823643
30
0
11
54.088285264759563
21
-35.410470216633058
31
0
0
LINE
5
162
100
AcDbEntity
8
0
100
AcDbLine
10
54.088285264759563
20
-35.410470216633058
30
0
11
54.088109695372175
21
-35.316963335227776
31
0
0
LINE
5
163
100
AcDbEntity
8
0
100
AcDbLine
10
54.088109695372175
20
-35.316963335227776
30
0
11
54.088029280102035
21
-35.314006511417837
31
0
0
LINE
5
164
100
AcDbEntity
8
0
100
AcDbLine
10
54.088029280102035
20
-35.314006511417837
30
0
11
54.088115190383803
21
-32.988644423335018
31
-6.3419360207442168e-31
0
LINE
5
165
100
AcDbEntity
8
0
100
AcDbLine
10
54.088115190383803
20
-32.988644423335018
30
-6.3419360207442168e-31
11
54.089216119647872
21
-28.633226553793545
31
0
0
LINE
5
166
100
AcDbEntity
8
0
100
AcDbLine
10
54.089216119647872
20
-28.633226553793545
30
0
11
54.089276097037377
21
-21.911048833632599
31
0
0
LWPOLYLINE
5
167
100
AcDbEntity
8
0
100
AcDbPolyline
90
5
70
1
43
0.0
10
-65.736552047729958
20
-18.966915100697939
10
65.13618374665532
20
-19.0176871954245
10
65.136677296955924
20
-11.675758077585954
10
-65.736051432292143
20
-11.623952454213562
10
-65.736051432292143
20
-11.624985982859402
0
CIRCLE
5
168
100
AcDbEntity
8
0
100
AcDbCircle
10
-168.10000000000176
20
-43.000004414728785
30
0
40
1.4999999999999858
0
CIRCLE
5
169
100
AcDbEntity
8
0
100
AcDbCircle
10
-168.10000000000176
20
-13.000004414728785
30
0
40
1.5000000000000213
0
CIRCLE
5
170
100
AcDbEntity
8
0
100
AcDbCircle
10
168.09999999999997
20
-43.000004414728785
30
0
40
1.4999999999999858
0
CIRCLE
5
171
100
AcDbEntity
8
0
100
AcDbCircle
10
168.09999999999997
20
-13.000004414728785
30
0
40
1.5000000000000213
0
LWPOLYLINE
5
172
100
AcDbEntity
8
0
100
AcDbPolyline
90
4
70
1
43
0.0
10
-92.000000000001251
20
-43.000004414726725
10
-92.000000000000327
20
-13.000004414726707
42
0.99999999999999989
10
-104.00000000000034
20
-13.000004414726334
10
-104.00000000000125
20
-43.000004414726369
42
0.99999999999999989
0
LWPOLYLINE
5
173
100
AcDbEntity
8
0
100
AcDbPolyline
90
4
70
1
43
0.0
10
132.00000000000011
20
-13.000004414728803
10
132.00000000000003
20
-43.000004414728807
42
0.99999999999999989
10
143.99999999999994
20
-43.000004414728828
10
144.00000000000006
20
-13.000004414728821
42
0.99999999999999989
0
LWPOLYLINE
5
174
100
AcDbEntity
8
0
100
AcDbPolyline
90
4
70
1
43
0.0
10
-112.00000000000179
20
-53.000004414726227
10
-112.00000000000038
20
-3.000004414726245
42
0.99999999999999989
10
-124.00000000000037
20
-3.0000044147258542
10
-124.00000000000178
20
-53.000004414725879
42
0.99999999999999989
0
LWPOLYLINE
5
175
100
AcDbEntity
8
0
100
AcDbPolyline
90
4
70
1
43
0.0
10
91.999999999999957
20
-13.000004414729451
10
92.000000000000014
20
-43.000004414729446
42
0.99999999999999989
10
104
20
-43.000004414729425
10
103.99999999999999
20
-13.000004414729416
42
0.99999999999999989
0
LWPOLYLINE
5
176
100
AcDbEntity
8
0
100
AcDbPolyline
90
4
70
1
43
0.0
10
112.00000000000003
20
-3.0000044147294336
10
112.00000000000001
20
-53.000004414729425
42
0.99999999999999989
10
124
20
-53.000004414729432
10
124.00000000000003
20
-3.0000044147294336
42
0.99999999999999989
0
LWPOLYLINE
5
177
100
AcDbEntity
8
0
100
AcDbPolyline
90
4
70
1
43
0.0
10
-132.00000000000153
20
-43.000004414725019
10
-132.00000000000077
20
-13.000004414725019
42
0.99999999999999989
10
-144.00000000000065
20
-13.000004414724717
10
-144.00000000000159
20
-43.000004414724714
42
0.99999999999999989
0
LWPOLYLINE
5
178
100
AcDbEntity
8
0
100
AcDbPolyline
90
4
70
1
43
0.0
10
188
20
-68.000004414728835
10
-188
20
-68.000004414728835
10
-188
20
11.999995585271268
10
188
20
11.999995585271268
0
CIRCLE
5
179
100
AcDbEntity
8
0
100
AcDbCircle
10
-168.10000000000176
20
-43.000004414728785
30
0
40
1.4999999999999858
0
CIRCLE
5
180
100
AcDbEntity
8
0
100
AcDbCircle
10
-168.10000000000176
20
-13.000004414728785
30
0
40
1.5000000000000213
0
CIRCLE
5
181
100
AcDbEntity
8
0
100
AcDbCircle
10
168.10000000000002
20
-43.000004414728785
30
0
40
1.4999999999999858
0
CIRCLE
5
182
100
AcDbEntity
8
0
100
AcDbCircle
10
168.10000000000002
20
-13.000004414728785
30
0
40
1.5000000000000213
0
LWPOLYLINE
5
183
100
AcDbEntity
8
0
100
AcDbPolyline
90
4
70
1
43
0.0
10
-92.000000000000298
20
-13.000004414726662
10
-92.000000000001222
20
-43.000004414726696
42
-0.99999999999999989
10
-104.00000000000121
20
-43.000004414726327
10
-104.00000000000028
20
-13.000004414726289
42
-0.99999999999999989
0
LWPOLYLINE
5
184
100
AcDbEntity
8
0
100
AcDbPolyline
90
4
70
1
43
0.0
10
132.00000000000006
20
-43.000004414728757
10
132.00000000000014
20
-13.000004414728764
42
-0.99999999999999989
10
144.00000000000009
20
-13.000004414728776
10
144
20
-43.000004414728778
42
-0.99999999999999989
0
LWPOLYLINE
5
185
100
AcDbEntity
8
0
100
AcDbPolyline
90
4
70
1
43
0.0
10
-112.00000000000034
20
-3.0000044147262006
10
-112.00000000000175
20
-53.000004414726178
42
-0.99999999999999989
10
-124.00000000000175
20
-53.000004414725836
10
-124.00000000000034
20
-3.0000044147258098
42
-0.99999999999999989
0
LWPOLYLINE
5
186
100
AcDbEntity
8
0
100
AcDbPolyline
90
4
70
1
43
0.0
10
92.000000000000043
20
-43.000004414729396
10
92
20
-13.00000441472941
42
-0.99999999999999989
10
104.00000000000003
20
-13.000004414729371
10
104.00000000000004
20
-43.000004414729382
42
-0.99999999999999989
0
LWPOLYLINE
5
187
100
AcDbEntity
8
0
100
AcDbPolyline
90
4
70
1
43
0.0
10
112.00000000000004
20
-53.000004414729382
10
112.00000000000006
20
-3.0000044147293927
42
-0.99999999999999989
10
124.00000000000006
20
-3.0000044147293892
10
124.00000000000004
20
-53.000004414729396
42
-0.99999999999999989
0
LWPOLYLINE
5
188
100
AcDbEntity
8
0
100
AcDbPolyline
90
4
70
1
43
0.0
10
-132.00000000000074
20
-13.000004414724975
10
-132.00000000000148
20
-43.000004414724977
42
-0.99999999999999989
10
-144.00000000000153
20
-43.000004414724671
10
-144.00000000000063
20
-13.000004414724673
42
-0.99999999999999989
0
LWPOLYLINE
5
189
100
AcDbEntity
8
0
100
AcDbPolyline
90
4
70
1
43
0.0
10
-188
20
-68.000004414728835
10
188
20
-68.000004414728835
10
188
20
11.999995585271265
10
-188
20
11.999995585271268
0
LWPOLYLINE
5
190
100
AcDbEntity
8
0
100
AcDbPolyline
90
5
70
1
43
0.0
10
-65.736552047729958
20
-18.966915100697936
10
-65.736051432292129
20
-11.624985982859394
10
-65.736051432292143
20
-11.623952454213555
10
65.136677296955924
20
-11.675758077585947
10
65.136183746655334
20
-19.017687195424497
0
LINE
5
191
100
AcDbEntity
8
0
100
AcDbLine
10
65.11145551656027
20
-35.412518371178848
30
0
11
65.113005433332887
21
-21.911899166453139
31
-2.4412017804995613e-30
0
LINE
5
192
100
AcDbEntity
8
0
100
AcDbLine
10
65.113005433332887
20
-21.911899166453139
30
-2.4412017804995613e-30
11
54.089276097037384
21
-21.911048833632591
31
-7.1976156995944696e-31
0
LINE
5
193
100
AcDbEntity
8
0
100
AcDbLine
10
54.089276097037384
20
-21.911048833632591
30
-7.1976156995944696e-31
11
54.089216119647887
21
-28.633226553793534
31
2.0212122250807082e-30
0
LINE
5
194
100
AcDbEntity
8
0
100
AcDbLine
10
54.089216119647887
20
-28.633226553793534
30
2.0212122250807082e-30
11
54.08811519038381
21
-32.988644423335003
31
0
0
LINE
5
195
100
AcDbEntity
8
0
100
AcDbLine
10
54.08811519038381
20
-32.988644423335003
30
0
11
54.088029280102042
21
-35.31400651141783
31
6.3419360207442168e-31
0
LINE
5
196
100
AcDbEntity
8
0
100
AcDbLine
10
54.088029280102042
20
-35.31400651141783
30
6.3419360207442168e-31
11
54.088109695372182
21
-35.316963335227769
31
0
0
LINE
5
197
100
AcDbEntity
8
0
100
AcDbLine
10
54.088109695372182
20
-35.316963335227769
30
0
11
54.08828526475957
21
-35.410470216633044
31
0
0
LINE
5
198
100
AcDbEntity
8
0
100
AcDbLine
10
54.08828526475957
20
-35.410470216633044
30
0
11
54.084129609197753
21
-35.409990728236416
31
0
0
SPLINE
5
199
100
AcDbEntity
8
0
100
AcDbSpline
70
1064
71
3
72
8
73
4
74
0
42
0.000000001
43
0.0000000001
44
0.0000000001
40
-1
40
-1
40
-1
40
-1
40
-0
40
-0
40
-0
40
-0
10
46.484954094005175
20
-44.18420989599263
30
0
10
50.954577602474195
20
-44.184572463137464
30
0
10
54.046409644835876
20
-40.616886305381783
30
0
10
54.084129609197753
20
-35.409990728236416
30
0
0
SPLINE
5
200
100
AcDbEntity
8
0
100
AcDbSpline
70
1064
71
3
72
8
73
4
74
0
42
0.000000001
43
0.0000000001
44
0.0000000001
40
-1
40
-1
40
-1
40
-1
40
-0
40
-0
40
-0
40
-0
10
46.453544914366248
20
-44.182697753849538
30
0
10
46.464175035371895
20
-44.1818148740618
30
0
10
46.473685159073533
20
-44.183333049508974
30
0
10
46.484954094005175
20
-44.18420989599263
30
0
0
LINE
5
201
100
AcDbEntity
8
0
100
AcDbLine
10
46.453544914366248
20
-44.182697753849538
30
0
11
46.453785626844621
21
-44.191569368638966
31
0
0
LINE
5
202
100
AcDbEntity
8
0
100
AcDbLine
10
46.453785626844621
20
-44.191569368638966
30
0
11
43.882189759417322
21
-44.190485317074518
31
0
0
LINE
5
203
100
AcDbEntity
8
0
100
AcDbLine
10
43.882189759417322
20
-44.190485317074518
30
0
11
43.880701275259604
21
-52.862239607639118
31
6.3286923136406775e-31
0
LINE
5
204
100
AcDbEntity
8
0
100
AcDbLine
10
43.880701275259604
20
-52.862239607639118
30
6.3286923136406775e-31
11
46.452297142686902
21
-52.86332365920358
31
0
0
SPLINE
5
205
100
AcDbEntity
8
0
100
AcDbSpline
70
1064
71
3
72
8
73
4
74
0
42
0.000000001
43
0.0000000001
44
0.0000000001
40
-1
40
-1
40
-1
40
-1
40
-0
40
-0
40
-0
40
-0
10
46.48426554015365
20
-52.863637693781492
30
0
10
46.472996605222001
20
-52.862760847297842
30
0
10
46.462926482868355
20
-52.862443199468132
30
0
10
46.452297142686902
20
-52.86332365920358
30
0
0
SPLINE
5
206
100
AcDbEntity
8
0
100
AcDbSpline
70
1064
71
3
72
8
73
4
74
0
42
0.000000001
43
0.0000000001
44
0.0000000001
40
-1
40
-1
40
-1
40
-1
40
-0
40
-0
40
-0
40
-0
10
65.111700280637237
20
-35.44328881358733
30
0
10
65.109485557660321
20
-45.959843972377776
30
0
10
57.633470155321163
20
-52.864626491792578
30
0
10
46.48426554015365
20
-52.863637693781492
30
0
0
SPLINE
5
207
100
AcDbEntity
8
0
100
AcDbSpline
70
1064
71
3
72
8
73
4
74
0
42
0.000000001
43
0.0000000001
44
0.0000000001
40
-1
40
-1
40
-1
40
-1
40
-0
40
-0
40
-0
40
-0
10
65.110256703982273
20
-35.411959172524931
30
0
10
65.111137868730552
20
-35.422588493532501
30
0
10
65.11201903347883
20
-35.433217814540072
30
0
10
65.111700280637237
20
-35.44328881358733
30
0
0
LINE
5
208
100
AcDbEntity
8
0
100
AcDbLine
10
65.110256703982273
20
-35.411959172524931
30
0
11
65.11145551656027
21
-35.412518371178848
31
0
0
SPLINE
5
209
100
AcDbEntity
8
0
100
AcDbSpline
70
1064
71
3
72
8
73
4
74
0
42
0.000000001
43
0.0000000001
44
0.0000000001
40
-1
40
-1
40
-1
40
-1
40
-0
40
-0
40
-0
40
-0
10
40.069369077998246
20
-28.532056657500611
30
0
10
40.067420481435306
20
-26.060521894464401
30
0
10
38.292769221461988
20
-24.478196877777645
30
0
10
35.252440410334458
20
-24.479413877277956
30
0
0
SPLINE
5
210
100
AcDbEntity
8
0
100
AcDbSpline
70
1064
71
3
72
8
73
4
74
0
42
0.000000001
43
0.0000000001
44
0.0000000001
40
-1
40
-1
40
-1
40
-1
40
-0
40
-0
40
-0
40
-0
10
35.1291539205763
20
-32.208931174766235
30
0
10
38.423389601685535
20
-32.207745707124602
30
0
10
40.070089935412518
20
-31.065771103620364
30
0
10
40.069369077998246
20
-28.532056657500611
30
0
0
LINE
5
211
100
AcDbEntity
8
0
100
AcDbLine
10
35.1291539205763
20
-32.208931174766235
30
0
11
28.656728047788516
21
-32.212805209037299
31
2.9629452241924939e-30
0
LINE
5
212
100
AcDbEntity
8
0
100
AcDbLine
10
28.656728047788516
20
-32.212805209037299
30
2.9629452241924939e-30
11
28.654741180197483
21
-28.039685943753163
31
-1.8444998066732884e-30
0
SPLINE
5
213
100
AcDbEntity
8
0
100
AcDbSpline
70
1064
71
3
72
8
73
4
74
0
42
0.000000001
43
0.0000000001
44
0.0000000001
40
-1
40
-1
40
-1
40
-1
40
-0
40
-0
40
-0
40
-0
10
35.252440410334458
20
-24.479413877277956
30
0
10
32.318086644364179
20
-24.481822485645406
30
0
10
29.76298412506484
20
-25.882285838717767
30
0
10
28.654741180197483
20
-28.039685943753163
30
0
0
LINE
5
214
100
AcDbEntity
8
0
100
AcDbLine
10
48.71547205225216
20
-21.911072154944542
30
0
11
17.627509620315507
21
-21.92691863472951
31
1.3012746325219689e-29
0
LINE
5
215
100
AcDbEntity
8
0
100
AcDbLine
10
17.627509620315507
20
-21.92691863472951
30
1.3012746325219689e-29
11
17.634754539307124
21
-35.427536103951141
31
2.0545953242485805e-30
0
LINE
5
216
100
AcDbEntity
8
0
100
AcDbLine
10
17.634754539307124
20
-35.427536103951141
30
2.0545953242485805e-30
11
17.635312956893586
21
-35.426336927332855
31
0
0
SPLINE
5
217
100
AcDbEntity
8
0
100
AcDbSpline
70
1064
71
3
72
8
73
4
74
0
42
0.000000001
43
0.0000000001
44
0.0000000001
40
-1
40
-1
40
-1
40
-1
40
-0
40
-0
40
-0
40
-0
10
17.635019881000378
20
-35.458305236947034
30
0
10
17.635330968690909
20
-35.448234909712689
30
0
10
17.63564205638146
20
-35.438164582478379
30
0
10
17.635312956893586
20
-35.426336927332855
30
0
0
SPLINE
5
218
100
AcDbEntity
8
0
100
AcDbSpline
70
1064
71
3
72
8
73
4
74
0
42
0.000000001
43
0.0000000001
44
0.0000000001
40
-1
40
-1
40
-1
40
-1
40
-0
40
-0
40
-0
40
-0
10
36.269793505234759
20
-52.871400015802365
30
0
10
25.119391622284066
20
-52.877115964861929
30
0
10
17.639655790699052
20
-45.974860271939633
30
0
10
17.635019881000378
20
-35.458305236947034
30
0
0
SPLINE
5
219
100
AcDbEntity
8
0
100
AcDbSpline
70
1064
71
3
72
8
73
4
74
0
42
0.000000001
43
0.0000000001
44
0.0000000001
40
-1
40
-1
40
-1
40
-1
40
-0
40
-0
40
-0
40
-0
10
36.301120789523537
20
-52.869936069344242
30
0
10
36.28985181825805
20
-52.869065420360414
30
0
10
36.280421983761983
20
-52.87051249872804
30
0
10
36.269793505234759
20
-52.871400015802365
30
0
0
LINE
5
220
100
AcDbEntity
8
0
100
AcDbLine
10
36.301120789523537
20
-52.869936069344242
30
0
11
38.89932972023783
21
-52.868602625804726
31
0
0
LINE
5
221
100
AcDbEntity
8
0
100
AcDbLine
10
38.89932972023783
20
-52.868602625804726
30
0
11
38.895169081568653
21
-44.196849128874959
31
-2.7613676503499753e-30
0
LINE
5
222
100
AcDbEntity
8
0
100
AcDbLine
10
38.895169081568653
20
-44.196849128874959
30
-2.7613676503499753e-30
11
36.296959579000955
21
-44.198182306120913
31
0
0
LINE
5
223
100
AcDbEntity
8
0
100
AcDbLine
10
36.296959579000955
20
-44.198182306120913
30
0
11
36.29671282095844
21
-44.189311421798422
31
0
0
SPLINE
5
224
100
AcDbEntity
8
0
100
AcDbSpline
70
1064
71
3
72
8
73
4
74
0
42
0.000000001
43
0.0000000001
44
0.0000000001
40
-1
40
-1
40
-1
40
-1
40
-0
40
-0
40
-0
40
-0
10
36.265385270376093
20
-44.190775940109958
30
0
10
36.275455597610424
20
-44.191087027800492
30
0
10
36.286084076137655
20
-44.19019951072616
30
0
10
36.29671282095844
20
-44.189311421798422
30
0
0
SPLINE
5
225
100
AcDbEntity
8
0
100
AcDbSpline
70
1064
71
3
72
8
73
4
74
0
42
0.000000001
43
0.0000000001
44
0.0000000001
40
-1
40
-1
40
-1
40
-1
40
-0
40
-0
40
-0
40
-0
10
28.978207471873382
20
-38.103469586986193
30
0
10
29.878758253069666
20
-41.813592044584887
30
0
10
32.613107609778005
20
-44.193054278816987
30
0
10
36.265385270376093
20
-44.190775940109958
30
0
0
LINE
5
226
100
AcDbEntity
8
0
100
AcDbLine
10
28.978207471873382
20
-38.103469586986193
30
0
11
37.222626388246269
21
-38.098780774428079
31
7.6279943861251954e-30
0
SPLINE
5
227
100
AcDbEntity
8
0
100
AcDbSpline
70
1064
71
3
72
8
73
4
74
0
42
0.000000001
43
0.0000000001
44
0.0000000001
40
-1
40
-1
40
-1
40
-1
40
-0
40
-0
40
-0
40
-0
10
50.331552177967467
20
-27.766868117090368
30
0
10
50.334538409237496
20
-34.228665378204141
30
0
10
45.712109579152731
20
-38.031632458579516
30
0
10
37.222626388246269
20
-38.098780774428079
30
0
0
SPLINE
5
228
100
AcDbEntity
8
0
100
AcDbSpline
70
1064
71
3
72
8
73
4
74
0
42
0.000000001
43
0.0000000001
44
0.0000000001
40
-1
40
-1
40
-1
40
-1
40
-0
40
-0
40
-0
40
-0
10
48.71547205225216
20
-21.911072154944542
30
0
10
49.760341692515482
20
-23.556334443965117
30
0
10
50.32996518592828
20
-25.542126922718715
30
0
10
50.331552177967467
20
-27.766868117090368
30
0
0
LINE
5
229
100
AcDbEntity
8
0
100
AcDbLine
10
14.479400658291272
20
-21.928000071497369
30
0
11
3.8995500293957086
21
-21.933806851760949
31
-3.0254051687548746e-30
0
LINE
5
230
100
AcDbEntity
8
0
100
AcDbLine
10
3.8995500293957086
20
-21.933806851760949
30
-3.0254051687548746e-30
11
3.9121912540680892
21
-46.48836369565128
31
5.202753043067135e-30
0
SPLINE
5
231
100
AcDbEntity
8
0
100
AcDbSpline
70
1064
71
3
72
8
73
4
74
0
42
0.000000001
43
0.0000000001
44
0.0000000001
40
-1
40
-1
40
-1
40
-1
40
-0
40
-0
40
-0
40
-0
10
9.2010190169094042
20
-43.980757151530476
30
0
10
6.9401532599224236
20
-43.981574153388372
30
0
10
5.0648912443016858
20
-44.84345641904455
30
0
10
3.9121912540680897
20
-46.48836369565128
30
0
0
SPLINE
5
232
100
AcDbEntity
8
0
100
AcDbSpline
70
1064
71
3
72
8
73
4
74
0
42
0.000000001
43
0.0000000001
44
0.0000000001
40
-1
40
-1
40
-1
40
-1
40
-0
40
-0
40
-0
40
-0
10
14.492681803848502
20
-46.48431481515231
30
0
10
13.338321107979141
20
-44.839142052531258
30
0
10
11.462442925189302
20
-43.978741544907713
30
0
10
9.2010190169094042
20
-43.980757151530476
30
0
0
LINE
5
233
100
AcDbEntity
8
0
100
AcDbLine
10
14.492681803848502
20
-46.48431481515231
30
0
11
14.479400658291272
21
-21.928000071497369
31
0
0
SPLINE
5
234
100
AcDbEntity
8
0
100
AcDbSpline
70
1064
71
3
72
8
73
4
74
0
42
0.000000001
43
0.0000000001
44
0.0000000001
40
0
40
0
40
0
40
0
40
1
40
1
40
1
40
1
10
14.476147114800053
20
-51.286708685700411
30
0
10
14.475953140779705
20
-54.391533042132821
30
0
10
12.321586411175138
20
-56.544072386994628
30
0
10
9.2167616022365451
20
-56.543878636941152
30
0
0
SPLINE
5
235
100
AcDbEntity
8
0
100
AcDbSpline
70
1064
71
3
72
8
73
4
74
0
42
0.000000001
43
0.0000000001
44
0.0000000001
40
0
40
0
40
0
40
0
40
1
40
1
40
1
40
1
10
9.2190461961550518
20
-45.96458596246076
30
0
10
12.322112398435587
20
-45.965419483738678
30
0
10
14.4764098259893
20
-48.119146632752418
30
0
10
14.476147114800053
20
-51.286708685700411
30
0
0
SPLINE
5
236
100
AcDbEntity
8
0
100
AcDbSpline
70
1064
71
3
72
8
73
4
74
0
42
0.000000001
43
0.0000000001
44
0.0000000001
40
0
40
0
40
0
40
0
40
1
40
1
40
1
40
1
10
3.8962950416662072
20
-51.285623333119766
30
0
10
3.8965578957754059
20
-48.118061346838282
30
0
10
6.1142217159765799
20
-45.964392626786726
30
0
10
9.2190461961550518
20
-45.96458596246076
30
0
0
SPLINE
5
237
100
AcDbEntity
8
0
100
AcDbSpline
70
1064
71
3
72
8
73
4
74
0
42
0.000000001
43
0.0000000001
44
0.0000000001
40
0
40
0
40
0
40
0
40
1
40
1
40
1
40
1
10
9.2167616022365451
20
-56.543878636941152
30
0
10
6.1131360775560228
20
-56.544244566587558
30
0
10
3.8961014964057132
20
-54.390447889551695
30
0
10
3.8962950416662072
20
-51.285623333119766
30
0
0
SPLINE
5
238
100
AcDbEntity
8
0
100
AcDbSpline
70
1064
71
3
72
8
73
4
74
0
42
0.000000001
43
0.0000000001
44
0.0000000001
40
-1
40
-1
40
-1
40
-1
40
-0
40
-0
40
-0
40
-0
10
-13.542622287717077
20
-24.985416005626568
30
0
10
-15.696954374877734
20
-24.986225275218334
30
0
10
-17.280270864049498
20
-25.747647182857001
30
0
10
-17.279370415661912
20
-27.331427829895922
30
0
0
SPLINE
5
239
100
AcDbEntity
8
0
100
AcDbSpline
70
1064
71
3
72
8
73
4
74
0
42
0.000000001
43
0.0000000001
44
0.0000000001
40
-1
40
-1
40
-1
40
-1
40
-0
40
-0
40
-0
40
-0
10
-1.4407220686073159
20
-29.222849803240464
30
0
10
-5.3061457205790319
20
-26.502017145723276
30
0
10
-9.7417718386342855
20
-24.98373493147583
30
0
10
-13.542622287717077
20
-24.985416005626568
30
0
0
LINE
5
240
100
AcDbEntity
8
0
100
AcDbLine
10
-1.4407220686073159
20
-29.222849803240464
30
0
11
2.0400024273706219
21
-22.252696916928638
31
4.1824911848302565e-30
0
SPLINE
5
241
100
AcDbEntity
8
0
100
AcDbSpline
70
1064
71
3
72
8
73
4
74
0
42
0.000000001
43
0.0000000001
44
0.0000000001
40
-1
40
-1
40
-1
40
-1
40
-0
40
-0
40
-0
40
-0
10
1.6044156537065928
20
-21.934572089644977
30
0
10
1.7493970867305824
20
-22.040027567711054
30
0
10
1.8978948518708809
20
-22.144202060300621
30
0
10
2.0400024273706223
20
-22.252696916928638
30
0
0
LINE
5
242
100
AcDbEntity
8
0
100
AcDbLine
10
1.6044156537065928
20
-21.934572089644977
30
0
11
-25.408650398309778
21
-21.949390982318484
31
1.4225965418595218e-30
0
SPLINE
5
243
100
AcDbEntity
8
0
100
AcDbSpline
70
1064
71
3
72
8
73
4
74
0
42
0.000000001
43
0.0000000001
44
0.0000000001
40
-1
40
-1
40
-1
40
-1
40
-0
40
-0
40
-0
40
-0
10
-27.668258879311143
20
-28.349908113188711
30
0
10
-27.669328124864254
20
-25.782467782883202
30
0
10
-26.84894708828363
20
-23.638410920358311
30
0
10
-25.408650398309778
20
-21.949390982318484
30
0
0
SPLINE
5
244
100
AcDbEntity
8
0
100
AcDbSpline
70
1064
71
3
72
8
73
4
74
0
42
0.000000001
43
0.0000000001
44
0.0000000001
40
-1
40
-1
40
-1
40
-1
40
-0
40
-0
40
-0
40
-0
10
-9.7330972593578657
20
-42.658671232223632
30
0
10
-9.7346283723825344
20
-37.97062476167963
30
0
10
-27.72481646763449
20
-40.260803516562063
30
0
10
-27.668258879311143
20
-28.349908113188711
30
0
0
SPLINE
5
245
100
AcDbEntity
8
0
100
AcDbSpline
70
1064
71
3
72
8
73
4
74
0
42
0.000000001
43
0.0000000001
44
0.0000000001
40
-1
40
-1
40
-1
40
-1
40
-0
40
-0
40
-0
40
-0
10
-13.088706096035789
20
-45.004131010290209
30
0
10
-11.125543229164183
20
-45.003317778524725
30
0
10
-9.7321974493970664
20
-44.24245175593235
30
0
10
-9.7330972593578657
20
-42.658671232223632
30
0
0
SPLINE
5
246
100
AcDbEntity
8
0
100
AcDbSpline
70
1064
71
3
72
8
73
4
74
0
42
0.000000001
43
0.0000000001
44
0.0000000001
40
-1
40
-1
40
-1
40
-1
40
-0
40
-0
40
-0
40
-0
10
-23.860295768212136
20
-41.589025165331549
30
0
10
-19.740820968695143
20
-43.805031164623081
30
0
10
-15.939623308074591
20
-45.005991761620791
30
0
10
-13.088706096035789
20
-45.004131010290209
30
0
0
LINE
5
247
100
AcDbEntity
8
0
100
AcDbLine
10
-23.860295768212136
20
-41.589025165331549
30
0
11
-27.594342883861156
21
-48.686379645534423
31
-3.3236585551985817e-31
0
SPLINE
5
248
100
AcDbEntity
8
0
100
AcDbSpline
70
1064
71
3
72
8
73
4
74
0
42
0.000000001
43
0.0000000001
44
0.0000000001
40
-1
40
-1
40
-1
40
-1
40
-0
40
-0
40
-0
40
-0
10
-13.527435811546358
20
-52.5429767615963
30
0
10
-18.469947319472642
20
-52.545675635883995
30
0
10
-23.411605010236993
20
-51.155122271470155
30
0
10
-27.594342883861156
20
-48.686379645534423
30
0
0
SPLINE
5
249
100
AcDbEntity
8
0
100
AcDbSpline
70
1064
71
3
72
8
73
4
74
0
42
0.000000001
43
0.0000000001
44
0.0000000001
40
-1
40
-1
40
-1
40
-1
40
-0
40
-0
40
-0
40
-0
10
0.33911727305181272
20
-41.702868595884937
30
0
10
0.34321127788268291
20
-48.735775262346749
30
0
10
-5.6090908117085725
20
-52.539675172850423
30
0
10
-13.527435811546358
20
-52.5429767615963
30
0
0
SPLINE
5
250
100
AcDbEntity
8
0
100
AcDbSpline
70
1064
71
3
72
8
73
4
74
0
42
0.000000001
43
0.0000000001
44
0.0000000001
40
-1
40
-1
40
-1
40
-1
40
-0
40
-0
40
-0
40
-0
10
-17.279370415661912
20
-27.331427829895922
30
0
10
-17.276700747239673
20
-32.336677138911973
30
0
10
0.39690234404679947
20
-29.729794433781549
30
0
10
0.33911727305181272
20
-41.702868595884937
30
0
0
LINE
5
251
100
AcDbEntity
8
0
100
AcDbLine
10
-53.504235755021114
20
-37.922258855720969
30
0
11
-40.031430248532004
21
-37.915196079197116
31
1.1832459958718615e-30
0
SPLINE
5
252
100
AcDbEntity
8
0
100
AcDbSpline
70
1064
71
3
72
8
73
4
74
0
42
0.000000001
43
0.0000000001
44
0.0000000001
40
-1
40
-1
40
-1
40
-1
40
-0
40
-0
40
-0
40
-0
10
-46.794294147457904
20
-43.55688989918481
30
0
10
-43.467531586368139
20
-43.554798749891589
30
0
10
-40.97589592901231
20
-41.363016150927081
30
0
10
-40.031430248532004
20
-37.915196079197116
30
0
0
SPLINE
5
253
100
AcDbEntity
8
0
100
AcDbSpline
70
1064
71
3
72
8
73
4
74
0
42
0.000000001
43
0.0000000001
44
0.0000000001
40
-1
40
-1
40
-1
40
-1
40
-0
40
-0
40
-0
40
-0
10
-53.504235755021114
20
-37.922258855720969
30
0
10
-52.55834654118415
20
-41.368926561943979
30
0
10
-50.075502511156472
20
-43.55830438918175
30
0
10
-46.794294147457904
20
-43.55688989918481
30
0
0
SPLINE
5
254
100
AcDbEntity
8
0
100
AcDbSpline
70
1064
71
3
72
8
73
4
74
0
42
0.000000001
43
0.0000000001
44
0.0000000001
40
-1
40
-1
40
-1
40
-1
40
-0
40
-0
40
-0
40
-0
10
-34.27979611798024
20
-21.953658561452265
30
0
10
-31.104447447687647
20
-25.0156781642307
30
0
10
-29.280623838216822
20
-29.4476023626613
30
0
10
-29.277025919954781
20
-34.80497979030676
30
0
0
LINE
5
255
100
AcDbEntity
8
0
100
AcDbLine
10
-34.27979611798024
20
-21.953658561452265
30
0
11
-59.278228828150858
21
-21.966824850067912
31
7.2618217468836132e-30
0
SPLINE
5
256
100
AcDbEntity
8
0
100
AcDbSpline
70
1064
71
3
72
8
73
4
74
0
42
0.000000001
43
0.0000000001
44
0.0000000001
40
-1
40
-1
40
-1
40
-1
40
-0
40
-0
40
-0
40
-0
10
-63.361359336697234
20
-28.685642927717694
30
0
10
-62.528446522641659
20
-26.035200176611184
30
0
10
-61.133300834310873
20
-23.766235563238574
30
0
10
-59.278228828150858
20
-21.966824850067912
30
0
0
LINE
5
257
100
AcDbEntity
8
0
100
AcDbLine
10
-63.361359336697234
20
-28.685642927717694
30
0
11
-52.252357007857171
21
-28.681081020398853
31
5.3917209619310152e-30
0
SPLINE
5
258
100
AcDbEntity
8
0
100
AcDbSpline
70
1064
71
3
72
8
73
4
74
0
42
0.000000001
43
0.0000000001
44
0.0000000001
40
-1
40
-1
40
-1
40
-1
40
-0
40
-0
40
-0
40
-0
10
-46.804139464152442
20
-25.818657718607341
30
0
10
-49.092817317018742
20
-25.819657148859729
30
0
10
-50.99118047835276
20
-26.872167347765561
30
0
10
-52.252357007857171
20
-28.681081020398853
30
0
0
SPLINE
5
259
100
AcDbEntity
8
0
100
AcDbSpline
70
1064
71
3
72
8
73
4
74
0
42
0.000000001
43
0.0000000001
44
0.0000000001
40
-1
40
-1
40
-1
40
-1
40
-0
40
-0
40
-0
40
-0
10
-39.883125660379008
20
-32.040450599323187
30
0
10
-40.692575670453635
20
-28.222439986128663
30
0
10
-43.28325055561352
20
-25.816487051243939
30
0
10
-46.804139464152442
20
-25.818657718607341
30
0
0
LINE
5
260
100
AcDbEntity
8
0
100
AcDbLine
10
-39.883125660379008
20
-32.040450599323187
30
0
11
-53.659549141776708
21
-32.047682154023178
31
-1.7966681737935817e-30
0
LINE
5
261
100
AcDbEntity
8
0
100
AcDbLine
10
-53.659549141776708
20
-32.047682154023178
30
-1.7966681737935817e-30
11
-53.658990724190247
21
-32.046482977404899
31
0
0
LINE
5
262
100
AcDbEntity
8
0
100
AcDbLine
10
-53.658990724190247
20
-32.046482977404899
30
0
11
-64.090268564601089
21
-32.052887022224759
31
-2.7895699758167243e-30
0
SPLINE
5
263
100
AcDbEntity
8
0
100
AcDbSpline
70
1064
71
3
72
8
73
4
74
0
42
0.000000001
43
0.0000000001
44
0.0000000001
40
-1
40
-1
40
-1
40
-1
40
-0
40
-0
40
-0
40
-0
10
-64.261101760504701
20
-34.823386100391332
30
0
10
-64.261004644123517
20
-33.870495816414177
30
0
10
-64.202702354632521
20
-32.946169177810233
30
0
10
-64.090268564601089
20
-32.052887022224759
30
0
0
SPLINE
5
264
100
AcDbEntity
8
0
100
AcDbSpline
70
1064
71
3
72
8
73
4
74
0
42
0.000000001
43
0.0000000001
44
0.0000000001
40
-1
40
-1
40
-1
40
-1
40
-0
40
-0
40
-0
40
-0
10
-46.78932974316016
20
-52.236315143085108
30
0
10
-57.243146458129445
20
-52.24097989142426
30
0
10
-64.255266913174211
20
-45.340498571860081
30
0
10
-64.261101760504701
20
-34.823386100391332
30
0
0
SPLINE
5
265
100
AcDbEntity
8
0
100
AcDbSpline
70
1064
71
3
72
8
73
4
74
0
42
0.000000001
43
0.0000000001
44
0.0000000001
40
-1
40
-1
40
-1
40
-1
40
-0
40
-0
40
-0
40
-0
10
-29.277025919954781
20
-34.80497979030676
30
0
10
-29.272390010256096
20
-45.321534825299359
30
0
10
-36.277572119640872
20
-52.229445582673733
30
0
10
-46.78932974316016
20
-52.236315143085108
30
0
0
ENDSEC
0
SECTION
2
OBJECTS
0
DICTIONARY
5
C
100
AcDbDictionary
3
ACAD_GROUP
350
D
3
ACAD_MLINESTYLE
350
17
0
DICTIONARY
5
D
100
AcDbDictionary
0
DICTIONARY
5
1A
330
C
100
AcDbDictionary
0
DICTIONARY
5
17
100
AcDbDictionary
0
ENDSEC
0
EOF
