0
SECTION
2
HEADER
9
$INSUNITS
70
4
9
$ACADVER
1
AC1014
9
$HANDSEED
5
FFFF
0
ENDSEC
0
SECTION
2
TABLES
0
TABLE
2
VPORT
5
8
100
AcDbSymbolTable
0
ENDTAB
0
TABLE
2
LTYPE
5
5
100
AcDbSymbolTable
0
LTYPE
5
14
100
AcDbSymbolTableRecord
100
AcDbLinetypeTableRecord
2
BYBLOCK
70
0
0
LTYPE
5
15
100
AcDbSymbolTableRecord
100
AcDbLinetypeTableRecord
2
BYLAYER
70
0
0
ENDTAB
0
TABLE
2
LAYER
5
2
100
AcDbSymbolTable
70
2
0
LAYER
5
50
100
AcDbSymbolTableRecord
100
AcDbLayerTableRecord
2
0
70
0
6
CONTINUOUS
0
ENDTAB
0
TABLE
2
STYLE
5
3
100
AcDbSymbolTable
70
1
0
STYLE
5
11
100
AcDbSymbolTableRecord
100
AcDbTextStyleTableRecord
2
STANDARD
70
0
0
ENDTAB
0
TABLE
2
VIEW
5
6
100
AcDbSymbolTable
70
0
0
ENDTAB
0
TABLE
2
UCS
5
7
100
AcDbSymbolTable
70
0
0
ENDTAB
0
TABLE
2
APPID
5
9
100
AcDbSymbolTable
70
2
0
APPID
5
12
100
AcDbSymbolTableRecord
100
AcDbRegAppTableRecord
2
ACAD
70
0
0
ENDTAB
0
TABLE
2
DIMSTYLE
5
A
100
AcDbSymbolTable
70
1
0
ENDTAB
0
TABLE
2
BLOCK_RECORD
5
1
100
AcDbSymbolTable
70
1
0
BLOCK_RECORD
5
1F
100
AcDbSymbolTableRecord
100
AcDbBlockTableRecord
2
*MODEL_SPACE
0
BLOCK_RECORD
5
1B
100
AcDbSymbolTableRecord
100
AcDbBlockTableRecord
2
*PAPER_SPACE
0
ENDTAB
0
ENDSEC
0
SECTION
2
BLOCKS
0
BLOCK
5
20
100
AcDbEntity
100
AcDbBlockBegin
2
*MODEL_SPACE
0
ENDBLK
5
21
100
AcDbEntity
100
AcDbBlockEnd
0
BLOCK
5
1C
100
AcDbEntity
100
AcDbBlockBegin
2
*PAPER_SPACE
0
ENDBLK
5
1D
100
AcDbEntity
100
AcDbBlockEnd
0
ENDSEC
0
SECTION
2
ENTITIES
0
CIRCLE
5
100
100
AcDbEntity
8
0
100
AcDbCircle
10
-162.99999999999943
20
192.99999999999983
30
0
40
1.9999999999999929
0
CIRCLE
5
101
100
AcDbEntity
8
0
100
AcDbCircle
10
162.99999999999937
20
192.99999999999983
30
0
40
1.9999999999999929
0
CIRCLE
5
102
100
AcDbEntity
8
0
100
AcDbCircle
10
-194.99999999999943
20
193.00000000000006
30
0
40
1.9999999999999929
0
CIRCLE
5
103
100
AcDbEntity
8
0
100
AcDbCircle
10
194.99999999999937
20
193.00000000000006
30
0
40
1.9999999999999929
0
CIRCLE
5
104
100
AcDbEntity
8
0
100
AcDbCircle
10
-162.9999999999994
20
-180.80000000000015
30
0
40
1.9999999999999929
0
CIRCLE
5
105
100
AcDbEntity
8
0
100
AcDbCircle
10
-194.9999999999994
20
-180.79999999999998
30
0
40
1.9999999999999929
0
CIRCLE
5
106
100
AcDbEntity
8
0
100
AcDbCircle
10
162.99999999999932
20
-180.80000000000015
30
0
40
1.9999999999999929
0
CIRCLE
5
107
100
AcDbEntity
8
0
100
AcDbCircle
10
194.99999999999932
20
-180.79999999999998
30
0
40
1.9999999999999929
0
CIRCLE
5
108
100
AcDbEntity
8
0
100
AcDbCircle
10
167.99967042172432
20
-147.0000000000004
30
0
40
1.5000000000000213
0
CIRCLE
5
109
100
AcDbEntity
8
0
100
AcDbCircle
10
167.99967042172432
20
96.999999999999773
30
0
40
1.5000000000000213
0
CIRCLE
5
110
100
AcDbEntity
8
0
100
AcDbCircle
10
167.99967042172432
20
-162.0000000000004
30
0
40
1.4999999999999858
0
CIRCLE
5
111
100
AcDbEntity
8
0
100
AcDbCircle
10
167.99967042172432
20
66.999999999999773
30
0
40
1.4999999999999858
0
CIRCLE
5
112
100
AcDbEntity
8
0
100
AcDbCircle
10
167.99967042172432
20
81.999999999999773
30
0
40
1.4999999999999858
0
CIRCLE
5
113
100
AcDbEntity
8
0
100
AcDbCircle
10
167.99967042172432
20
-177.0000000000004
30
0
40
1.4999999999999858
0
CIRCLE
5
114
100
AcDbEntity
8
0
100
AcDbCircle
10
-167.9996704217244
20
-147.0000000000004
30
0
40
1.5000000000000213
0
CIRCLE
5
115
100
AcDbEntity
8
0
100
AcDbCircle
10
-167.9996704217244
20
96.999999999999773
30
0
40
1.5000000000000213
0
CIRCLE
5
116
100
AcDbEntity
8
0
100
AcDbCircle
10
-167.9996704217244
20
-162.0000000000004
30
0
40
1.4999999999999858
0
CIRCLE
5
117
100
AcDbEntity
8
0
100
AcDbCircle
10
-167.9996704217244
20
66.999999999999773
30
0
40
1.4999999999999858
0
CIRCLE
5
118
100
AcDbEntity
8
0
100
AcDbCircle
10
-167.9996704217244
20
81.999999999999773
30
0
40
1.4999999999999858
0
CIRCLE
5
119
100
AcDbEntity
8
0
100
AcDbCircle
10
-167.9996704217244
20
-177.0000000000004
30
0
40
1.4999999999999858
0
LWPOLYLINE
5
120
100
AcDbEntity
8
0
100
AcDbPolyline
90
12
70
1
43
0.0
10
-200.00000000000003
20
-200
10
-199.99999999999997
20
195
42
-0.4142135623730992
10
-195
20
200.00000000000003
10
195
20
200
42
-0.41421356237309709
10
200
20
194.99999999999997
10
199.99999999999997
20
-200.00000000000003
10
149.99999999999997
20
-200
10
149.99999999999997
20
145
42
0.41421356237309814
10
144.99999999999997
20
150
10
-145
20
150.00000000000003
42
0.41421356237309609
10
-150.00000000000003
20
145
10
-150.00000000000003
20
-200
0
ENDSEC
0
SECTION
2
OBJECTS
0
DICTIONARY
5
C
100
AcDbDictionary
3
ACAD_GROUP
350
D
3
ACAD_MLINESTYLE
350
17
0
DICTIONARY
5
D
100
AcDbDictionary
0
DICTIONARY
5
1A
330
C
100
AcDbDictionary
0
DICTIONARY
5
17
100
AcDbDictionary
0
ENDSEC
0
EOF
