0
SECTION
2
HEADER
9
$INSUNITS
70
4
9
$ACADVER
1
AC1014
9
$HANDSEED
5
FFFF
0
ENDSEC
0
SECTION
2
TABLES
0
TABLE
2
VPORT
5
8
100
AcDbSymbolTable
0
ENDTAB
0
TABLE
2
LTYPE
5
5
100
AcDbSymbolTable
0
LTYPE
5
14
100
AcDbSymbolTableRecord
100
AcDbLinetypeTableRecord
2
BYBLOCK
70
0
0
LTYPE
5
15
100
AcDbSymbolTableRecord
100
AcDbLinetypeTableRecord
2
BYLAYER
70
0
0
ENDTAB
0
TABLE
2
LAYER
5
2
100
AcDbSymbolTable
70
2
0
LAYER
5
50
100
AcDbSymbolTableRecord
100
AcDbLayerTableRecord
2
0
70
0
6
CONTINUOUS
0
ENDTAB
0
TABLE
2
STYLE
5
3
100
AcDbSymbolTable
70
1
0
STYLE
5
11
100
AcDbSymbolTableRecord
100
AcDbTextStyleTableRecord
2
STANDARD
70
0
0
ENDTAB
0
TABLE
2
VIEW
5
6
100
AcDbSymbolTable
70
0
0
ENDTAB
0
TABLE
2
UCS
5
7
100
AcDbSymbolTable
70
0
0
ENDTAB
0
TABLE
2
APPID
5
9
100
AcDbSymbolTable
70
2
0
APPID
5
12
100
AcDbSymbolTableRecord
100
AcDbRegAppTableRecord
2
ACAD
70
0
0
ENDTAB
0
TABLE
2
DIMSTYLE
5
A
100
AcDbSymbolTable
70
1
0
ENDTAB
0
TABLE
2
BLOCK_RECORD
5
1
100
AcDbSymbolTable
70
1
0
BLOCK_RECORD
5
1F
100
AcDbSymbolTableRecord
100
AcDbBlockTableRecord
2
*MODEL_SPACE
0
BLOCK_RECORD
5
1B
100
AcDbSymbolTableRecord
100
AcDbBlockTableRecord
2
*PAPER_SPACE
0
ENDTAB
0
ENDSEC
0
SECTION
2
BLOCKS
0
BLOCK
5
20
100
AcDbEntity
100
AcDbBlockBegin
2
*MODEL_SPACE
0
ENDBLK
5
21
100
AcDbEntity
100
AcDbBlockEnd
0
BLOCK
5
1C
100
AcDbEntity
100
AcDbBlockBegin
2
*PAPER_SPACE
0
ENDBLK
5
1D
100
AcDbEntity
100
AcDbBlockEnd
0
ENDSEC
0
SECTION
2
ENTITIES
0
LINE
5
100
100
AcDbEntity
8
0
100
AcDbLine
10
149.84964945542677
20
145.6593568997705
30
0
11
169.84964945542674
21
145.65935689977044
31
0
0
ARC
5
101
100
AcDbEntity
8
0
100
AcDbCircle
10
169.8496494554268
20
142.65935689977059
30
-7.1159687641494617e-45
40
2.9999999999999183
100
AcDbArc
50
-89.999999999999503
51
90.000000000001094
0
LINE
5
102
100
AcDbEntity
8
0
100
AcDbLine
10
169.84964945542683
20
139.65935689977067
30
1.1832913578314785e-30
11
149.84964945542674
21
139.65935689977061
31
0
0
ARC
5
103
100
AcDbEntity
8
0
100
AcDbCircle
10
149.8496494554268
20
142.65935689977056
30
-2.4892061111444567e-59
40
2.9999999999999361
100
AcDbArc
50
90.00000000000054
51
269.99999999999886
0
LINE
5
104
100
AcDbEntity
8
0
100
AcDbLine
10
175.00415349222544
20
-135.9108866186923
30
2.7755575615628914e-16
11
188.0000028014183
21
-135.91088605921567
31
2.7755575615628914e-16
0
LINE
5
105
100
AcDbEntity
8
0
100
AcDbLine
10
188
20
-135.91088605921567
30
2.7755575615628914e-16
11
188
21
-133.91088602941335
31
2.7755575615628914e-16
0
LINE
5
106
100
AcDbEntity
8
0
100
AcDbLine
10
188.0000028014183
20
-133.91088602941338
30
0
11
175.0055300990764
21
-133.91088011018985
31
0
0
ARC
5
107
100
AcDbEntity
8
0
100
AcDbCircle
10
175
20
-128.91088316839037
30
0
40
4.9999999999999876
100
AcDbArc
50
89.976202244406053
51
270.06337028039326
0
LINE
5
108
100
AcDbEntity
8
0
100
AcDbLine
10
175.00207674588879
20
-123.91088359967775
30
0
11
188.0000028014183
21
-123.91088588040174
31
2.7755575615628914e-16
0
LINE
5
109
100
AcDbEntity
8
0
100
AcDbLine
10
188
20
-123.91088588040174
30
2.7755575615628914e-16
11
187.99999999999997
21
-121.85032957827585
31
2.7755575615629012e-16
0
LINE
5
110
100
AcDbEntity
8
0
100
AcDbLine
10
187.99999999999997
20
-121.85032957827585
30
2.7755575615629012e-16
11
175.04599499080993
21
-121.91067160999673
31
2.7755575615628914e-16
0
ARC
5
111
100
AcDbEntity
8
0
100
AcDbCircle
10
175
20
-116.9108831683904
30
0
40
5
100
AcDbArc
50
90
51
270.52707120420718
0
LINE
5
112
100
AcDbEntity
8
0
100
AcDbLine
10
175
20
-111.9108831683904
30
0
11
188.0000028014183
21
-111.91088570158776
31
2.7755575615628943e-16
0
LINE
5
113
100
AcDbEntity
8
0
100
AcDbLine
10
188
20
-111.9108857015878
30
2.7755575615628914e-16
11
188
21
-103.35000000000001
31
2.7755575615628914e-16
0
LINE
5
114
100
AcDbEntity
8
0
100
AcDbLine
10
188
20
-103.35000000000001
30
2.7755575615628914e-16
11
150.00000000000003
21
-103.34999999999994
31
3.2869135641044504e-31
0
ARC
5
115
100
AcDbEntity
8
0
100
AcDbCircle
10
150.00000000000003
20
-101.84999999999995
30
0
40
1.5000000000000036
100
AcDbArc
50
180
51
270
0
LINE
5
116
100
AcDbEntity
8
0
100
AcDbLine
10
148.50000000000003
20
-101.84999999999995
30
3.9411519309135486e-45
11
148.50000000000003
21
-92.84999999999998
31
0
0
ARC
5
117
100
AcDbEntity
8
0
100
AcDbCircle
10
150.00000000000003
20
-92.849999999999966
30
0
40
1.5000000000000036
100
AcDbArc
50
90.000000000001094
51
180
0
LINE
5
118
100
AcDbEntity
8
0
100
AcDbLine
10
150
20
-91.349999999999966
30
0
11
200
21
-91.349999999999937
31
6.5738499219928854e-31
0
LINE
5
119
100
AcDbEntity
8
0
100
AcDbLine
10
200
20
-91.349999999999937
30
6.5738499219928854e-31
11
200
21
199.99999999999997
31
0
0
LINE
5
120
100
AcDbEntity
8
0
100
AcDbLine
10
200
20
199.99999999999997
30
0
11
-199.99999999999915
21
200.00000000000023
31
2.7755575615628914e-16
0
LINE
5
121
100
AcDbEntity
8
0
100
AcDbLine
10
-199.99999999999915
20
200.00000000000023
30
2.7755575615628914e-16
11
-199.99999999999997
21
-91.34999999999998
31
2.7755575615628914e-16
0
LINE
5
122
100
AcDbEntity
8
0
100
AcDbLine
10
-199.99999999999997
20
-91.34999999999998
30
2.7755575615628914e-16
11
-150
21
-91.34999999999998
31
9.045156101138051e-37
0
ARC
5
123
100
AcDbEntity
8
0
100
AcDbCircle
10
-150
20
-92.849999999999966
30
0
40
1.5000000000000036
100
AcDbArc
50
0
51
90
0
LINE
5
124
100
AcDbEntity
8
0
100
AcDbLine
10
-148.5
20
-92.849999999999966
30
-1.4994755839234754e-45
11
-148.5
21
-101.84999999999997
31
0
0
ARC
5
125
100
AcDbEntity
8
0
100
AcDbCircle
10
-150
20
-101.84999999999999
30
0
40
1.5000000000000036
100
AcDbArc
50
-90
51
0
0
LINE
5
126
100
AcDbEntity
8
0
100
AcDbLine
10
-150
20
-103.34999999999999
30
7.192073907177123e-70
11
-188.00000000000009
21
-103.35000000000001
31
-1.6434670935257523e-31
0
LINE
5
127
100
AcDbEntity
8
0
100
AcDbLine
10
-188.00000000000009
20
-103.35000000000001
30
-1.6434670935257523e-31
11
-188.00000000000037
21
-200.00000000000028
31
0
0
LINE
5
128
100
AcDbEntity
8
0
100
AcDbLine
10
-188.00000000000037
20
-200.00000000000028
30
0
11
188
21
-200.00000000000014
31
2.6295431526907581e-30
0
LINE
5
129
100
AcDbEntity
8
0
100
AcDbLine
10
188
20
-200.00000000000014
30
2.6295431526907581e-30
11
188
21
-140.91088613372148
31
0
0
LINE
5
130
100
AcDbEntity
8
0
100
AcDbLine
10
188.0000028014183
20
-140.9108861337215
30
0
11
175.00501880151236
21
-140.91087813071158
31
-3.2869455156337001e-31
0
ARC
5
131
100
AcDbEntity
8
0
100
AcDbCircle
10
175
20
-138.41088316839037
30
0
40
2.5000000000000036
100
AcDbArc
50
89.904808926304995
51
270.11502253520848
0
CIRCLE
5
132
100
AcDbEntity
8
0
100
AcDbCircle
10
95.999999999999588
20
-193.00000000000017
30
2.7755575615628914e-16
40
1.5000000000000036
0
CIRCLE
5
133
100
AcDbEntity
8
0
100
AcDbCircle
10
-64.000000000000981
20
193.00000000000023
30
0
40
1.4999999999999947
0
CIRCLE
5
134
100
AcDbEntity
8
0
100
AcDbCircle
10
-30.999999999999659
20
176.00000000000023
30
2.7755575615628914e-16
40
1.4999999999999991
0
CIRCLE
5
135
100
AcDbEntity
8
0
100
AcDbCircle
10
22.000000000000377
20
194.00000000000028
30
2.7755575615628914e-16
40
1.4999999999999858
0
CIRCLE
5
136
100
AcDbEntity
8
0
100
AcDbCircle
10
64.000000000000981
20
193.00000000000023
30
0
40
1.5000000000000036
0
CIRCLE
5
137
100
AcDbEntity
8
0
100
AcDbCircle
10
-63.999999999999588
20
-193
30
2.7755575615628914e-16
40
1.5000000000000036
0
CIRCLE
5
138
100
AcDbEntity
8
0
100
AcDbCircle
10
63.999999999999588
20
-193
30
2.7755575615628914e-16
40
1.5000000000000036
0
CIRCLE
5
139
100
AcDbEntity
8
0
100
AcDbCircle
10
-96.000000000000966
20
193.00000000000043
30
0
40
1.5000000000000036
0
CIRCLE
5
140
100
AcDbEntity
8
0
100
AcDbCircle
10
-30.999999999999655
20
194.00000000000028
30
2.7755575615628914e-16
40
1.4999999999999991
0
CIRCLE
5
141
100
AcDbEntity
8
0
100
AcDbCircle
10
22.000000000000369
20
176.00000000000023
30
2.7755575615628914e-16
40
1.4999999999999858
0
CIRCLE
5
142
100
AcDbEntity
8
0
100
AcDbCircle
10
96.000000000000966
20
193.00000000000043
30
0
40
1.5000000000000036
0
CIRCLE
5
143
100
AcDbEntity
8
0
100
AcDbCircle
10
-95.999999999999588
20
-193.00000000000017
30
2.7755575615628914e-16
40
1.4999999999999858
0
CIRCLE
5
144
100
AcDbEntity
8
0
100
AcDbCircle
10
-176.75000000000085
20
176.74999999999903
30
2.7755575615628914e-16
40
1.5000000000000213
0
CIRCLE
5
145
100
AcDbEntity
8
0
100
AcDbCircle
10
176.74999999999977
20
-176.75000000000136
30
0
40
1.5000000000000213
0
CIRCLE
5
146
100
AcDbEntity
8
0
100
AcDbCircle
10
176.75000000000085
20
176.74999999999903
30
2.7755575615628914e-16
40
1.5000000000000213
0
CIRCLE
5
147
100
AcDbEntity
8
0
100
AcDbCircle
10
-176.75000000000196
20
-176.74999999999923
30
0
40
1.5000000000000213
0
CIRCLE
5
148
100
AcDbEntity
8
0
100
AcDbCircle
10
174.50000000000006
20
-55.850000000000655
30
2.7755575615628914e-16
40
3.2999999999999829
0
CIRCLE
5
149
100
AcDbEntity
8
0
100
AcDbCircle
10
174.50000000000006
20
-86.850000000000662
30
0
40
3.2999999999999829
0
CIRCLE
5
150
100
AcDbEntity
8
0
100
AcDbCircle
10
159.00000000000006
20
-71.350000000000662
30
0
40
14.000000000000004
0
CIRCLE
5
151
100
AcDbEntity
8
0
100
AcDbCircle
10
143.50000000000006
20
-55.850000000000655
30
2.7755575615628914e-16
40
1.5000000000000036
0
CIRCLE
5
152
100
AcDbEntity
8
0
100
AcDbCircle
10
143.50000000000006
20
-86.850000000000662
30
0
40
1.5000000000000036
0
CIRCLE
5
153
100
AcDbEntity
8
0
100
AcDbCircle
10
-174.50000000000006
20
-86.850000000000662
30
0
40
3.2999999999999829
0
CIRCLE
5
154
100
AcDbEntity
8
0
100
AcDbCircle
10
-174.50000000000006
20
-55.850000000000655
30
2.7755575615628914e-16
40
3.2999999999999829
0
CIRCLE
5
155
100
AcDbEntity
8
0
100
AcDbCircle
10
-143.50000000000006
20
-55.850000000000655
30
2.7755575615628914e-16
40
1.5000000000000036
0
CIRCLE
5
156
100
AcDbEntity
8
0
100
AcDbCircle
10
-143.50000000000006
20
-86.850000000000662
30
0
40
1.5000000000000036
0
CIRCLE
5
157
100
AcDbEntity
8
0
100
AcDbCircle
10
-159.00000000000006
20
-71.350000000000662
30
0
40
14.000000000000004
0
CIRCLE
5
158
100
AcDbEntity
8
0
100
AcDbCircle
10
-174.50000000000006
20
-55.850000000000655
30
2.7755575615628914e-16
40
1.4999999999999858
0
CIRCLE
5
159
100
AcDbEntity
8
0
100
AcDbCircle
10
-174.50000000000006
20
-86.850000000000662
30
0
40
1.4999999999999858
0
CIRCLE
5
160
100
AcDbEntity
8
0
100
AcDbCircle
10
174.50000000000006
20
-55.850000000000655
30
2.7755575615628914e-16
40
1.4999999999999858
0
CIRCLE
5
161
100
AcDbEntity
8
0
100
AcDbCircle
10
174.50000000000006
20
-86.850000000000662
30
0
40
1.4999999999999858
0
ENDSEC
0
SECTION
2
OBJECTS
0
DICTIONARY
5
C
100
AcDbDictionary
3
ACAD_GROUP
350
D
3
ACAD_MLINESTYLE
350
17
0
DICTIONARY
5
D
100
AcDbDictionary
0
DICTIONARY
5
1A
330
C
100
AcDbDictionary
0
DICTIONARY
5
17
100
AcDbDictionary
0
ENDSEC
0
EOF
